Home » M » My Bloody Valentine »

My Bloody Valentine - You Never Should Bass

Artists:  A B C D E F G H I J K L M N O P Q R S T U V W X Y Z # 

You Never Should Bass

(ver. 1) Click to play this song!
My Bloody Valentine
[Verse]

G|---------------------------------|
D|---------------------------------| (x4)
A|----------------4-4---4-4---4--44|
E|6666666666666666-----------------|

G|--------------------|
D|--------------------|
A|--------------------|
E|4--4---4-4---4-4----|

[Chorus]

G|---------------------------------|---------------------------------|
D|---------------------------------|3-3-3335-5-5--556-66-6-6-6-6--6-6|
A|6-6-66-64-44-44-4-4-44-4-4-4-4-4-|---------------------------------|
E|---------------------------------|---------------------------------|

G|---------------------------------|-------------------|
D|3-3-3335-5-5--55-----------------|-------------------|
A|----------------4-4---44--4-4---4|-------------------|
E|---------------------------------|4--4---4-4---4-4---|

G|---------------------------------|---------------------------------|
D|---------------------------------|3-3-3335-5-5--556-66-6-6-6-6--6-6|
A|6-6-66-64-44-44-4-4-44-4-4-4-4-4-|---------------------------------|
E|---------------------------------|---------------------------------|

G|---------------------------------|-------------------|
D|3-3-333--------------------------|-------------------|
A|-------6-6-6--664-4---44--4-4---4|-------------------|
E|---------------------------------|4--4---4-4---4-4---|

[Verse]

G|---------------------------------|
D|---------------------------------| (x4)
A|----------------4-4---4-4---4--44|
E|6666666666666666-----------------|

G|--------------------|
D|--------------------|
A|--------------------|
E|4--4---4-4---4-4----|

[Solo]

G|---------------------------------|---------------------------------|
D|---------------------------------|3-3-333-3-3-333------------------|
A|-----------------4-4---444-4-444-|-----------------4-4---444-4-444-|
E|1-1---1-1---1--1-----------------|---------------------------------|

G|---------------------------------|---------------------------------|
D|6-6666668-888-8-8----------------|3-3-333-3-3-3333-----------------|
A|-----------------4-4---444-4-444-|-----------------4-4---444-4-444-|
E|---------------------------------|---------------------------------|

G|---------------------------------|---------------------------------|
D|---------------------------------|---------------------------------|
A|-----------------4-4---4-4---4-4-|-----------------4-4---4-4---4-4-|
E|6666666666666666-----------------|4--4---4-4---4-4-----------------|

G|--------------------|
D|--------------------|
A|--------------------|
E|4--4---4-4---4-4----|

[Chorus]

G|---------------------------------|---------------------------------|
D|---------------------------------|3-3-3335-5-5--556-66-6-6-6-6--6-6|
A|6-6-66-64-44-44-4-4-44-4-4-4-4-4-|---------------------------------|
E|---------------------------------|---------------------------------|

G|---------------------------------|-------------------|
D|3-3-3335-5-5--55-----------------|-------------------|
A|----------------4-4---44--4-4---4|-------------------|
E|---------------------------------|4--4---4-4---4-4---|

G|---------------------------------|---------------------------------|
D|---------------------------------|3-3-3335-5-5--556-66-6-6-6-6--6-6|
A|6-6-66-64-44-44-4-4-44-4-4-4-4-4-|---------------------------------|
E|---------------------------------|---------------------------------|

G|---------------------------------|-------------------|
D|3-3-333--------------------------|-------------------|
A|-------6-6-6--664-4---44--4-4---4|-------------------|
E|---------------------------------|4--4---4-4---4-4---|

[Verse]

G|---------------------------------|
D|---------------------------------| (x4)
A|----------------4-4---4-4---4--44|
E|6666666666666666-----------------|

G|--------------------|---------------------|
D|--------------------|---------------------|
A|--------------------|---------------------|
E|4--4---4-4---4-4----|1--------------------|
            
Submit corrections

↑ Back to top | Tablatures and chords for acoustic guitar and electric guitar, ukulele, drums are parodies/interpretations of the original songs. You may use it for private study, scholarship, research or language learning purposes only