Home » M » My Bloody Valentine »

My Bloody Valentine - Tiger In My Tank Tabs

Artists:  A B C D E F G H I J K L M N O P Q R S T U V W X Y Z # 

Tiger In My Tank Tabs

(ver. 1) Click to play this song!
My Bloody Valentine
[Verse]

e|---------------------------------------------------------------------------|
B|---------------------------------------------------------------------------|
G|---------------------------------------------------------------------------|
D|---------------------------------------------------------------------------|
A|---------6-7-7b-6-5--------------------------------------------------------|
E|---5-5-8------------8-7----------------------------------------------------|

e|---------------------------------------------------------------------------|
B|---------------------------------------------------------------------------|
G|---------------------------------------------------------------------------|
D|---------------------------------------------------------------------------|
A|---------6-7-6-5-----------------------------------------------------------|
E|---5-5-8---------8-7-------------------------------------------------------|


[Chorus]

e|---------------------------------------------------------------------------|
B|---------------------------------------------------------------------------|
G|---------------------------------------------------------------------------|
D|---7---9---10--11--12---14---3---------------------------------------------|
A|---7---9---10--11--12---14---3---------------------------------------------|
E|---5---7---8---9---10---12---1---------------------------------------------|


[Transition between chorus and verse]

e|---------------------------------------------------------------------------|
B|---------------------------------------------------------------------------|
G|---------------------------------------------------------------------------|
D|---7---6---5---7---9---10--------------------------------------------------|
A|---7---6---5---7---9---10--------------------------------------------------|
E|---5---4---3---5---7---8---------------------------------------------------|

[Outro]

e|---------------------------------------------------------------------------|
B|---------------------------------------------------------------------------|
G|---------------------------------------------------------------------------|
D|---7---9---10--11--12---14---15---7----------------------------------------|
A|---7---9---10--11--12---14---15---7----------------------------------------|
E|---5---7---8---9---10---12---13---5----------------------------------------|            
Submit corrections

↑ Back to top | Tablatures and chords for acoustic guitar and electric guitar, ukulele, drums are parodies/interpretations of the original songs. You may use it for private study, scholarship, research or language learning purposes only