Home » M » My Bloody Valentine »

My Bloody Valentine - She Found Now Tabs

Artists:  A B C D E F G H I J K L M N O P Q R S T U V W X Y Z # 

She Found Now Tabs

(ver. 1) Click to play this song!
My Bloody Valentine
           
e|----------------------------------------------------5--------5-------------|
B|-----7-----7----------------7----7-------5----------x--------7-------------|
G|-----7-----7----------------7----7-------6----------x--------x-------------|
D|-----x-----5----------------x----x-------x----------7--------7-------------|
A|-----5----------------------7----5-------4----------0--------0-------------|
E|---------------------------------------------------------------------------|

e|---------------------------------------------------------------------------|
B|-------------------------7---7---7-----------------------------------------|
G|-------------------------7---7---7-----------------------------------------|
D|-----5-----4-------------5---x---x-----------------------------------------|
A|-----5-----4-----------------7---5-----------------------------------------|
E|-----3-----2---------------------------------------------------------------|

This is played near the end of the song. Before this part, I suggest improvising with the notes
used below. Use tremolo bar dips heavily, on every note. 
e|----5----------------------------------------------------------------------|
B|----7----------------------------------------------------------------------|
G|--------------7----------7------9------11------14--------------------------|
D|--------------7------------------------------------------------------------|
A|---------------------------------------------------------------------------|
E|---------------------------------------------------------------------------|

            
Submit corrections

↑ Back to top | Tablatures and chords for acoustic guitar and electric guitar, ukulele, drums are parodies/interpretations of the original songs. You may use it for private study, scholarship, research or language learning purposes only