Home » M » My Bloody Valentine »

My Bloody Valentine - If I Am Tabs

Artists:  A B C D E F G H I J K L M N O P Q R S T U V W X Y Z # 

If I Am Tabs

(ver. 1) Click to play this song!
My Bloody Valentine

-------------------------------------------------------------------------------
-------------------------------------------------------------------------------

Tuning: Standard
Notes: "If I Am" sounds like a regular song that was put into the 
musical equivalent of a paper shredder, which was then rearranged 


Instead of tabbing out rhythms and such, I'm just going to type out chords. They 
are sixteenth notes, 
each played 16 times in succession.
 
      C7        cm        asus2      e         C        F7        F6
e||----3----|----3----|----0----|----0----|----0----|---------|---------|
B||----0----|----4----|----0----|----0----|----1----|---------|---------|
G||----0----|----5----|----2----|----0----|----0----|----9----|----7----|
D||----2----|----5----|----2----|----2----|----2----|----7----|----7----|
A||----3----|----3----|----0----|----2----|----3----|----8----|----8----|
E||---------|---------|---------|----0----|---------|---------|---------|

     am        em        C7        F7        C7
e|----2----|----0----|----3----|----8----|----0----||
B|----3----|----0----|----5----|----10---|----0----||
G|----4----|----0----|----4----|----9----|----4----||
D|----4----|----2----|----5----|----10---|----5----||
A|----2----|----2----|----3----|----8----|----3----||
E|---------|----0----|---------|---------|---------||


    outro:

e|---------------------------||
B|.---10/12----5/7----10\8--.||
G|----10/12----5/7----10\8---||
D|----10/12----5/7----10\8---||
A|.---8/10-----3/5----8\6---.||
E|----8/10------------8\6----||

************************************

| /   slide up
| \   slide down
| h   hammer-on
| p   pull-off
| ~   vibrato
| +   harmonic
| x   Mute note
| b   Bend
| pb  Pre-bend
| br  Bend release
| pbr Pre-bend release
| brb Bend release bend

***************
            
Submit corrections

↑ Back to top | Tablatures and chords for acoustic guitar and electric guitar, ukulele, drums are parodies/interpretations of the original songs. You may use it for private study, scholarship, research or language learning purposes only