» » »

Mushroomhead - Solitair Unraveling Tabs

Artists:  A B C D E F G H I J K L M N O P Q R S T U V W X Y Z # 

Solitair Unraveling Tabs

(ver. 1) Click to play this song!
Mushroomhead
 Rating:
4/5 (4 votes)


 Solitair Unraveling lessons Tabs too difficult? Try these video lessons and learn fast
 
                x= palm mute
  *= palm mute that fret (as shown)
  /= slide
  P= pick
  b= bend
  r= release


  Guitar Intro  (clean
  (0:20)
  E------------------------------------------------------------------------------
  A------------------------------------------------------------------------------
  D------------------------------------------------------------------------------
  G-x-x-x------15b-mute before you realease--------------------------------------
  B-x-x-x------------------------------------------------------------------------
  e-x-x-x--4b-realease slow------------------------------------------------------

  (0:35) (distortid) Virse Thing where he says like 3 words
  E------------------------------------------------------------------------------
  A------------------------------------------------------------------------------
  D-*-*--*-*--*-*---------------------------------------------------------------- 
  G-2-1--2-1--2-1----------------------------------------------------------------   
  B-2-1--2-1--2-1----------------------------------------------------------------
  e-2-1--2-1--2-1----------------------------------------------------------------

  (0:47) Right b4 Chorus         Chorus
  E---------------------|---------------------------------------------------------
  A--------P------------|---------------------------------------------------------
  D----15b17r-----------|-1-1-2-2-1-1-2-1-2--------------------------------------- 
  G---------------------|-1-1-2-2-1-1-2-1-2---------------------------------------
  B---------------------|---------------------------------------------------------
  e---------------------|---------------------------------------------------------

  (1:15) 
  E------------------------------------------------------------------------------
  A------------------------------------------------------------------------------
  D-*-*--*-*--*-*----------------------------------------------------------------
  G-2-1--2-1--2-1----------------------------------------------------------------
  B-2-1--2-1--2-1----------------------------------------------------------------
  e-2-1--2-1--2-1----------------------------------------------------------------

  (1:26) Right b4 Chorus         Chorus
  E---------------------|---------------------------------------------------------
  A--------P------------|---------------------------------------------------------
  D----15b17r-----------|--------------------------------------------------------- 
  G---------------------|-1-1-2-2-1-1-2-1-2---------------------------------------
  B---------------------|-1-1-2-2-1-1-2-1-2---------------------------------------
  e---------------------|---------------------------------------------------------
  
  (1:54)              (2:18)
  E-----------------|-------------------------------------------------------------
  A-----------------|-------------------------------------------------------------
  D-----------------|-------------------------------------------------------------
  G-----------------|-------------------------------------------------------------
  B-----------------|-------------------------------------------------------------
  e-1-0--1-0--------|-12/--1-0--1-0-----------------------------------------------
  
  (2:44)
  E------------------------------------------------------------------------------
  A------------------------------------------------------------------------------
  D------------------------------------------------------------------------------
  G------------------------------------------------------------------------------ 
  B------------------------------------------------------------------------------ 
  e-1-0-xxxxxx-------------------------------------------------------------------
  
  (2:56)(clean) this is hard to hear but its there
  E------------------------------------------------------------------------------
  A-6-5-6-7-8-7~-5-6-5-4~~-------------------------------------------------------
  D------------------------------------------------------------------------------
  G------------------------------------------------------------------------------
  B------------------------------------------------------------------------------
  e------------------------------------------------------------------------------

  (3:09)  I'V SUFFERD!! (distort.)
  E-------------------------x-x--x-x---------------------------------------------
  A-------------------------x-x--x-x---------------------------------------------
  D-------------------------x-x--x-x--------------------------------------------- 
  G-2-1--2-1----2-1--2-1---------------------------------------------------------
  B-2-1--2-1----2-1--2-1---------------------------------------------------------
  e-2-1--2-1----2-1--2-1---------------------------------------------------------

  E------------------------------------------------------------------------------
  A------------------------------------------------------------------------------
  D------------------------------------------------------------------------------ 
  G------------------------------------------------------------------------------
  B------------------------------------------------------------------------------
  e-1-0--1-0---------------------------------------------------------------------
  
  (3:59)
  E------------------------------------------------------------------------------
  A------------------------------------------------------------------------------
  D------------------------------------------------------------------------------
  G------------------------------------------------------------------------------
  B------------------------------------------------------------------------------
  e-1-0-xxxxxxx-1-0-xxxxxxx-1-0-1-xxxxxxx----------------------------------------

  (Outro)(clean)
  E------------------------------------------------------------------------------
  A-6-5-6-7-8-7~--5-6-5-4-3------------------------------------------------------
  D------------------------------------------------------------------------------
  G------------------------------------------------------------------------------
  B------------------------------------------------------------------------------
  e------------------------------------------------------------------------------

  This is the whole song and i know it is right, just listen to the song to get how many times to play 
            
Submit corrections



        Solitair Unraveling lessons Hard to play? Try these video lessons and learn fast Solitair Unraveling lessons
        
↑ Back to top | Tablatures and chords for acoustic guitar and electric guitar, ukulele, drums are parodies/interpretations of the original songs. You may use it for private study, scholarship, research or language learning purposes only