Home » M » Mungo Jerry »

Mungo Jerry - In The Summer Time Bass

Artists:  A B C D E F G H I J K L M N O P Q R S T U V W X Y Z # 

In The Summer Time Bass

(ver. 1) Click to play this song!
Mungo Jerry
INTRO
******
G|--------------|---------------|-------------------|-------------------|------------|
D|--------------|---------------|------------h---h--|-------------------|------------|
A|-7-----7------|-7-----7-----9-|-0--7--0-0-7-9-7-9-|-7-----77--7-----9-|----9-----7-|
E|----7-----7-9-|----7-----9----|-------------------|----7---------7----|-7-----5----|


G|---------------|
D|---------------|
A|-7------7------|
E|----7------7-9-|            
Submit corrections

↑ Back to top | Tablatures and chords for acoustic guitar and electric guitar, ukulele, drums are parodies/interpretations of the original songs. You may use it for private study, scholarship, research or language learning purposes only