Home » M » Mungo Jerry »

Mungo Jerry - In The Summertime Tabs

Artists:  A B C D E F G H I J K L M N O P Q R S T U V W X Y Z # 

In The Summertime Tabs

(ver. 1) Click to play this song!
Mungo Jerry
E|-----------------------------0---|-3-----------3---3-------0-------|-0---------------------------0---|
B|-------------------------3-------|-----------------------------3---|-----3---0---3-----------3-------|
G|-----0-------0-------------------|-----0---------------0-----------|-----------------0---------------|
D|---------0---------------0-------|---------0---------------0-------|---------0---------------0-------|
A|---------------------------------|---------------------------------|---------------------------------|
E|-3---------------3---------------|-3---------------3---------------|-3---------------3---------------|


E|-3-----------3---3-------0-------|-0-------------------------|---------------------------|
B|-----------------------------3---|-----3---0---3--------0----|---------------------------|
G|-----0---------------0-----------|-----------------0---------|-2-----------0-------------|
D|---------0---------------0-------|---------0------------0----|-----2----------------2----|
A|---------------------------------|---------------------------|---------3------------3----|
E|-3---------------3---------------|-3---------------3---------|-3---------------3---------|


E|---------------------------|-3-----------3---3-------0-------|-0-------------------------------|
B|---------------------------|-----------------------------3---|-----3---0---3-----------0---0---|
G|-2-----------0-------------|-----0---------------0-----------|-----------------0---------------|
D|-----2----------------2----|---------0---------------0-------|---------0---------------0-------|
A|---------3------------3----|---------------------------------|---------------------------------|
E|-3---------------3---------|-3---------------3---------------|-3---------------3---------------|


E|------------------------------|------------------------------|---------------------------------|
B|-3-----------3-----------3----|-1-----------1-----------1----|-0-------------------------------|
G|-----2---------------2--------|-----2---------------2--------|-----0-------0-------0-------0---|
D|---------0---------------0----|---------0---------------0----|---------0---------------0-------|
A|-0---------------0------------|-0---------------0------------|---------------------------------|
E|------------------------------|------------------------------|-3---------------3---------------|            
Submit corrections

↑ Back to top | Tablatures and chords for acoustic guitar and electric guitar, ukulele, drums are parodies/interpretations of the original songs. You may use it for private study, scholarship, research or language learning purposes only