Home » M » Mumford And Sons »

Mumford And Sons - Hot Gates Bass

Artists:  A B C D E F G H I J K L M N O P Q R S T U V W X Y Z # 

Hot Gates Bass

(ver. 1) Click to play this song!
Mumford And Sons
G|-17-----17-----17-----17------17------17------17------17------17------17--------|
D|--------------------------------------------------------------------------------|
A|-------------------3------33------33------33------33------33------33------33----|
E|--------------------------------------------------------------------------------|

G|-------------------------------------------------------------|
D|-------------------------------------------------------------|
A|-8--8--8--8--12--12--12--12--10--10--10--10--10--10--10--10--| X2
E|-------------------------------------------------------------|

G|------------------------------------------------------------|
D|------------------------------------------------------------|
A|-3----15----15----15----15----15----15----15----15----15\---|
E|------------------------------------------------------------|

G|-------------------------------------------------------------|
D|-------------------------------------------------------------|
A|-8-----------12--------------10---------------------10-------| X4
E|-------------------------------------------------------------|

G|-------------------------------|
D|-------------------------------|
A|-12----10-----/15----12----10--|
E|-------------------------------|

G|-------------------------------------------------------------------|
D|-------------------------------------------------------------------|
A|-3----15----15----15----15----15----15----15----15----15--17--15---|
E|-------------------------------------------------------------------|

G|-------------------------------------------------------------|
D|-------------------------------------------------------------|
A|-8-----------12--------------10---------------------10-------| X4
E|-------------------------------------------------------------|

G|-----------------------------------------------------------------|
D|-----------------------------------------------------------------|
A|-12----10----15----12----10----15----12----10----15----12----10--|
E|-----------------------------------------------------------------|

G|-------------------------------------------------------------|
D|-------------------------------------------------------------|
A|-8-----------12--------------10---------------------10-------| X4
E|-------------------------------------------------------------|

G|-----------------------------------|
D|-----------------------------------|
A|-12----10-----/15----12----10----3-|
E|-----------------------------------|            
Submit corrections

↑ Back to top | Tablatures and chords for acoustic guitar and electric guitar, ukulele, drums are parodies/interpretations of the original songs. You may use it for private study, scholarship, research or language learning purposes only