Home » M » Mudcrutch »

Mudcrutch - Beautiful World Tabs

Artists:  A B C D E F G H I J K L M N O P Q R S T U V W X Y Z # 

Beautiful World Tabs

(ver. 1) Click to play this song!
Mudcrutch
[Intro]


    D             Dmaj7         G              D      
e|---------------------------------------------------------------------------|
B|--7--7-7--7-7---7--7-7--7-7---3--3-3--3------3--3-3--3-3/------------------|
G|--7--7-7--7-7p6-6--6-6--6-6\4-4--4-4--4-4\2--2--2-2--2-2/------------------|
D|--0--0-0--0-0-0-0--0-0--0-0-0-0--0-0--0-0-0--0--0-0--0-0/------------------|
A|---------------------------------------------------------------------------|
E|---------------------------------------------------------------------------|

    D             Dmaj7         G              D      
e|---------------------------------------------------------------------------|
B|--7--7-7--7-7---7--7-7--7-7---3--3-3--3------3--3-3--3-3-------------------|
G|--7--7-7--7-7p6-6--6-6--6-6\4-4--4-4--4-4\2--2--2-2--2-2-------------------|
D|--0--0-0--0-0-0-0--0-0--0-0-0-0--0-0--0-0-0--0--0-0--0-0-------------------|
A|---------------------------------------------------------------------------|
E|---------------------------------------------------------------------------|

[Verse]
D
Woke up this morning
      Dmaj7
I was thinking about it
      G                D
I was thinking about a life
         D     
Yeah the one that we're livin'
        Dmaj7
and the one that we're given
        G
and the things that turn out right


[Verse]
         D
Like the stars above me
        Dmaj7
and the sun that's shining,
        G            D
I don't always understand
         D
but with you beside me
        Dmaj7
and the love to guide me
  G                  D
I guess I'll make my stand


[Chorus]
       A         D
It's a beautiful world
   A       D
so hold me tight
  A      D
I had to fight
      G         D
every day of my life -
       A         D
It's a beautiful world


D Dmaj7 G D


[Verse]
D
Take it for granted
         Dmaj7
that I'm off to the ocean
G                   G
floating around the sea
D
So much before me
            Dmaj7
and there's so much behind me,
        G              D
in this world of mystery


[Chorus]
       A         D
It's a beautiful world
   A       D
so hold me tight
  A      D
I had to fight
      G         D
every day of my life -
       A         D
It's a beautiful world

Em                  A     Asus4 A
Many a man has been broken
Em                      A  Asus4 A
Feeling what I feel for you
Em                  A     Asus4 A
Many a promise been spoken
     C           
Over youuu...over youuuu...
     A
Over youuu...over youuuu...
D


[Solo]
              D            Dmaj7               G            D
e|---------------------------------------------------------------------------|
B|------------7p5h7-8--10--12--10-8/10-8p7-8p7-5h7-5-3--5-3------------------|
G|------------7p6h7-9--11--12--11-9/11-9p7-9p7-6h7-6-4--6-4-2-2--------------|
D|----------------------------------------------------------0-0--------------|
A|------0h2h4----------------------------------------------------------------|
E|--2h3----------------------------------------------------------------------|

    D             Dmaj7           G                  D
e|---------------------------------------------------------------------------|
B|---------------------------------------------------3-----------------------|
G|--7--7-7-7--6-4-2--4-2-4h2h0-0---------------------2-----------------------|
D|--0--0-0-0--0-0-0-----------4-4-2--4h2h0-----------0-----------------------|
A|-----------------------------------------4b5r4-2-0-------------------------|
E|---------------------------------------------------------------------------|


[Verse]
D
Woke up this morning
      Dmaj7
I was thinking about it
      G                D
I was thinking about a life
         D     
Yeah the one that we're livin'
        Dmaj7
and the one that we're given
        G
and the things that turn out right


[Chorus]
       A         D
It's a beautiful world
   A       D
so hold me tight
  A      D
I had to fight
      G         D
every day of my life -
       A         D
It's a beautiful world
   A       D
so hold me tight
  A      D
I had to fight
      G         D
every day of my life -
       A         D
It's a beautiful world


[Outro]
              D             Dmaj7         G              D      
e|---------------------------------------------------------------------------|
B|------------7--7-7--7-7---7--7-7--7-7---3--3-3--3------3--3-3--3-3/--------|
G|------------7--7-7--7-7p6-6--6-6--6-6\4-4--4-4--4-4\2--2--2-2--2-2/--------|
D|------------0--0-0--0-0-0-0--0-0--0-0-0-0--0-0--0-0-0--0--0-0--0-0/--------|
A|------0h2h4----------------------------------------------------------------|
E|--2h3----------------------------------------------------------------------|

    D             Dmaj7         G              D      
e|---------------------------------------------------------------------------|
B|--7--7-7--7-7---7--7-7--7-7---3--3-3--3------3--3-3--3-3-------------------|
G|--7--7-7--7-7p6-6--6-6--6-6\4-4--4-4--4-4\2--2--2-2--2-2-------------------|
D|--0--0-0--0-0-0-0--0-0--0-0-0-0--0-0--0-0-0--0--0-0--0-0-------------------|
A|---------------------------------------------------------------------------|
E|---------------------------------------------------------------------------|

e|--0---2---3---2-------2----------------------------------------------------|
B|--2---3---3---3---2---3----------------------------------------------------|
G|--2---2---0---2---2---2----------------------------------------------------|
D|--2---0---0---0---2---0----------------------------------------------------|
A|--0-------2-------0--------------------------------------------------------|
E|----------3----------------------------------------------------------------|
            
Submit corrections

↑ Back to top | Tablatures and chords for acoustic guitar and electric guitar, ukulele, drums are parodies/interpretations of the original songs. You may use it for private study, scholarship, research or language learning purposes only