Home » M » Mr. Big »

Mr. Big - The Whole Worlds Gonna Know Tabs

Artists:  A B C D E F G H I J K L M N O P Q R S T U V W X Y Z # 

The Whole Worlds Gonna Know Tabs

(ver. 1) Click to play this song!
Mr. Big
MR. BIG
-------
The Whole World's Gonna Know (B.Sheehan, P.Gilbert)

       So, this is a brilliant Mr.Big song, with a pretty good lyric,
in fact I thought that isn't very good to write the tab wit all their details
'cause have a lot of details, it's for that reason that I wrote just the
chords. I'm a little slack to write tablatures, and I also can to improvise
a little bit.
       Any mistake that I've made, please let me know it, I'll be appreciated.
The Solo I think that's right, I've passed a lot of time trying to
transcribe it, so I was pretty strict to each note, so if you don't understand
anything or you think that there are any mistake, please tell me.

If you want the song with the lyrics, just emailme;)

Notation:

\\ = Slow slide
~~ = Vibrato
^  = Hammer-On & Pull-Off
/\ = Slide down or up
1+ = Bend a whole or half tone
.  = Palm mute

Intro:
        . . . . . . . . . .   .   .  ~~                                 1+
E-|------------------------------8-------------------------------9----------|
B-|----------5^6-----5-----6-5---8---------/10-11-----------6/10---10/---20-|
G-|----------------------5---5----------/7--------10------6-----------------|
D-|--------7-------5-----------------/5--------------12\--------------------|
A-|-17\\-5-------3-----~~~~----0---0----------------------------------------|
E-|--------------------6----------------------------------------------------|

Chords:
       I guess all of you know this chords, but maybe I play it at
       differents positions, so this is how I play it on the song:

    Dm    C    C2     Gm     Bb     C#5    D5   F5    C5
E-|--5--|-----|-8---|--3---|------|------|-----|-----|-----|
B-|--6--|--5--|-8---|--3---|--3---|------|-----|-----|-13--|
G-|--7--|--5--|-9---|--3---|--3---|--6---|--7--|-10--|-12--|
D-|--7--|--5--|-10--|--5---|--3---|--6---|--7--|-10--|-10--|
A-|--5--|--3--|-10--|--5---|--1---|--4---|--5--|-8---|-----|
E-|-----|-----|-8---|--3---|------|------|-----|-----|-----|

Verse I:
             Dm

                           Dm C2

       Gm                         Bb       C

       Dm

                            Dm  C2                                  

         Gm

                            Bb              C

Bridge:
            Bb

               C

              Bb

       C          C#5

Chorus:
                 D5                   F5  C5

                 D5

                 Bb5 C5

                 D5                   F5  C5

                 D5                  Bb5         C5


Verse II:
       Dm                            Dm  C2

         Gm

                           Bb        C

       Dm                                        Dm  C2

       Gm

                       Bb            C

play bridge->chorus->intro and solo...

Solo:
         1+.....                                                   ~~~
E-|------------------------------------------------------------------------|
B-|---------------15^17^15----15-17-18---17^18^17^15----15-----------------|
G-|-------17---------------17------------------------17----15-14-----------|
D-|--------------------------------------------------------------17-15--14-|
A-|------------------------------------------------------------------------|
E-|------------------------------------------------------------------------|

   1+~~~~~~~                  ...1+     ~~~~~~~       1+-
E-|-----------------------------------------------------------------|
B-|-----------------------------------11----------------------------|
G-|-------------------------10-12--------12------10-12-12--10-10-12-|
D-|-12----------------10^12-----------------------------------------|
A-|------------/10^12-----------------------------------------------|
E-|-----------------------------------------------------------------|

                  1+                                                       ~~  
E-|---------------------------------------------------------------------------|
B-|---------------------10^13^10----10----------------------------------------|
G-|-12^14^12^10----12------------12----10----12-12-10^7-10-10-7---------------|
D-|-------------12------------------------12----------------------------------|
A-|-------------------------------------------------------------10-----8^10---|
E-|-----------------------------------------------------------------10------8-|

   . . . . . .                                        1+
E-|---------------------------------------------------------------------------|
B-|----------------------------------------------------13-15^13^10----10------|
G-|------------------7---------7-10-------10^12^10---10------------12----12-10|
D-|---------5---7^10---10-7-10------10^12----------12-------------------------|
A-|-----5-8---8---------------------------------------------------------------|
E-|-5^8-----------------------------------------------------------------------|

               1+                                  1+-+
E-|----------------------------------8-10-12/15-----13------13^15^13----13-|
B-|------------------------------------------------------------------15----|
G-|-12-12----10-12--12-12^10-9-10-12---------------------------------------|
D-|-------12---------------------------------------------------------------|
A-|------------------------------------------------------------------------|
E-|------------------------------------------------------------------------|

                      1+             1+                     1+
E-|--------13-13----------------------20---20-18-17-18----17-----|
B-|-15-13--------15-13-18----20^18^15------------------20----20--|
G-|--------------------------------------------------------------|
D-|--------------------------------------------------------------|
A-|--------------------------------------------------------------|
E-|--------------------------------------------------------------|

                     ...1+-                                  ~~~~~        
       
E-|-17^18^17----17-18-20-------18-17----17-18-17----17--------------|
B-|----------20----------------------20----------20----20-18--17\---|
G-|-----------------------------------------------------------------|
D-|-----------------------------------------------------------------|
A-|-----------------------------------------------------------------|
E-|-----------------------------------------------------------------|

                            The End
            
Submit corrections

↑ Back to top | Tablatures and chords for acoustic guitar and electric guitar, ukulele, drums are parodies/interpretations of the original songs. You may use it for private study, scholarship, research or language learning purposes only