Home » M » Motion City Soundtrack »

Motion City Soundtrack - Pulp Fiction Tabs

Artists:  A B C D E F G H I J K L M N O P Q R S T U V W X Y Z # 

Pulp Fiction Tabs

(ver. 1) Click to play this song!
Motion City Soundtrack
Pulp Fiction by Motion City Soundtrack

I do not own this song.


I was bored and figured this one out in a couple of minutes. It's extremely easy to
play. I'm not too great of guitarist but if anyone's interested, here it is. I might tab the
rest of the song later:

Power chords used:

d#|-----------------------|
A#|-----------------------|
F#|--6-----(9)*---4----2--|  *this chord every second time
C#|--6----2(9)*---4----2--|
G#|--4----2(7)*---2----0--|
D#|-------0---------------|

The melody part which is played in chorus as well, repeated many times

d#|--------------14-11-12-11---------------------14-11-12-11----|
A#|--11h12-11h12-------------12-14---11h12-11h12-------------14-|
F#|-------------------------------------------------------------|
C#|-------------------------------------------------------------|
G#|-------------------------------------------------------------|
D#|-------------------------------------------------------------|

I'm not 100% sure what happens in the end when Justin says "Wating for the big bang..."
for the last time but I think it's just a bunch of C5 and D#5 ending on a single Bb5. By
the way, I don't have access to guitar pro tabs so if someone has already tabbed exactly 
the same, I apologize. I assure I haven't seen that.
            
Submit corrections

↑ Back to top | Tablatures and chords for acoustic guitar and electric guitar, ukulele, drums are parodies/interpretations of the original songs. You may use it for private study, scholarship, research or language learning purposes only