Home » M » Motion City Soundtrack »

Motion City Soundtrack - Fell In Love Without You Tabs

Artists:  A B C D E F G H I J K L M N O P Q R S T U V W X Y Z # 

Fell In Love Without You Tabs

(ver. 1) Click to play this song!
Motion City Soundtrack
The best song of their new album "Even If It Kills Me". This was quite hard to tab out, 
dunno why, it just was quite tough, I think I've got it prettttty right tho. Standard 
I'm afraid.

Intro / Main Riff

e|--------------------------------------------------|
B|--------------------------------------------------|
G|-444--888------------------444--888---------------|
D|-444--888--444--222--------444--888--44444444-----| x 2
A|-222--666--444--222--------222--666--44444444-----|
E|-----------222--000------------------22222222-----|

Chorus

e|-----------------------------------------------------|
B|-----------------------------------------------------|
G|-------------4444444444----------222222--444444444444|
D|-2222222222--4444444444--666666--222222--444444444444| x 2
A|-2222222222--2222222222--666666--000000--222222222222|
E|-0000000000--------------444444----------------------|

Solo

e|-------------------------------------------------------------------|
B|-------7------------------7------------7--5--4--2--5--4------------|
G|-1--4------4--3--4-----4-----4--3--4---------------------1-letring-|
D|--------------------4----------------------------------------------|
A|-------------------------------------------------------------------|
E|-------------------------------------------------------------------|

Solo Cont. 1

e|--------7-9-7--11-12-11---------7-9-7--11-12-11--11-12-11--7-9-7---|
B|-7-9-7-------------------7-9-7-------------------------------------|
G|-------------------------------------------------------------------|
D|-------------------------------------------------------------------|
A|-------------------------------------------------------------------|
E|-------------------------------------------------------------------|

Solo Cont. 2

e|-6-11-6-11--12-11-11-7-7-11-7-11-11 letring-------|
B|--------------------------------------------------|
G|--------------------------------------------------|
D|--------------------------------------------------|
A|--------------------------------------------------|
E|--------------------------------------------------|

Solo Cont. 4 - This is the only bit thats not perfect but mess about a bit and its 
close.

e|-7-9-11-11-11-11-11-11-11-11-7-7-7-14-14-14-14-11-11-11-11--|
B|------------------------------------------------------------|
G|------------------------------------------------------------|
D|------------------------------------------------------------|
A|------------------------------------------------------------|
E|------------------------------------------------------------|


Last Chorus - Same as before but higher chords for a bit

e|------------------------------------------------------------|
B|-666--101010------------------666--101010-------------------|
G|-666--101010--666--444--------444--101010--66666666---------|
D|-444--8-8-8---666--444--------444--8-8-8---66666666---------| x 2
A|--------------444--222---------------------44444444---------|
E|------------------------------------------------------------|

e|-----------------------------------------------------|
B|-----------------------------------------------------|
G|-------------6666666666----------444444--666666666666|
D|-4444444444--6666666666--888888--444444--666666666666| x 2
A|-4444444444--4444444444--888888--222222--444444444444|
E|-2222222222--------------666666----------------------|

Then back to original chorus once:

e|-----------------------------------------------------|
B|-----------------------------------------------------|
G|-------------4444444444----------222222--444444444444|
D|-2222222222--4444444444--666666--222222--444444444444|
A|-2222222222--2222222222--666666--000000--222222222222|
E|-0000000000--------------444444----------------------|

Outro

Chorus

e|--------------------------------------------------|
B|--------------------------------------------------|
G|-----2>-------------------------------------------|
D|-6>--2>--2>---------------------------------------|
A|-6>--0>--2>---------------------------------------|
E|-4>------0>---------------------------------------|


Yeah, ok song to play, the solo is annnnnoying as hell but still love it. I KNOW thiers 
problems with the solo but it's as close as I'm gonna get it without spending all day on 
            
Submit corrections

↑ Back to top | Tablatures and chords for acoustic guitar and electric guitar, ukulele, drums are parodies/interpretations of the original songs. You may use it for private study, scholarship, research or language learning purposes only