» » »

Morbid Angel - Nothing Is Not Tabs

Artists:  A B C D E F G H I J K L M N O P Q R S T U V W X Y Z # 

Nothing Is Not Tabs

(ver. 1) Click to play this song!
Morbid Angel
 Rating:
4/5 (4 votes)

 Nothing Is Not lessons Tabs too difficult? Try these video lessons and learn fast
 
                MORBID ANGEL


Tuning - Bb (3 steps down)

x\ - pick scr*pe
pm - palm mute
h  - hammer on
p  - pull off
~  - vibrato
b  - bend
ah - artificial harmonic

*NOTE* Listen to song for correct timing


Intro 			    (ending 2)
|-------------------------|---------------------------------|
|-------------------------|---------------------------------|
|-------------------------|---------------------------------|
|--------8----------------|--------8------------------------|
|-2--x\--6---8--9--2-2-2--|-2--x\--6---8--9--2-2-2---2-2-1--|
|-0--x\--6---6--7--0-0-0--|-0--x\--6---6--7--0-0-0---0-0----|
pm.                . . .    .                . . .   . .


Riff 1a
|-----------------------------------------|
|-----------------------------------------|
|-----------------------------------------|
|-1--------2--2-----1--------2h3p2--------|
|-1--------2--2-----1--------2h3p2---3----|
|----0--0---------0-----0--0-------0-3-0--|
pm   .  .         .     .  .       .   .


Riff 2a
|---------------------------------------------|
|---------------------------------------------|
|---------------------------------------------|
|-5--5--5--5--5--4--4--4---4--5---------------|
|-3--3--3--3--3--2--2--2---2--3--3--3-3-3--3--|
|--------------------------------1--1-1-1--1--|
pm                               .  . . .  .


Riff 2b
|-----------------------------------------------|
|-----------------------------------------------|
|-----------------------------------------------|
|-5--5--5--5--4--4--4---4--5--------------------|
|-3--3--3--3--2--2--2---2--3--3--3-3-3--3-3-1~--|
|-----------------------------1--1-1-1--1-1-----|
pm                            .  . . .  . .


Riff 1b
|-------------------------------------------------------------------------|
|-------------------------------------------------------------------------|
|-------------------------------------------------------------------------|
|-1--------2--2----1-------2h3p2-------ah-------2--2----1-------2h3p2-----|
|-1--------2--2----1-------2h3p2---3---2b-------2--2----1-------2h3p2-----|
|----0--0--------0----0--0-------0-3-0-----0--0-------0----0--0-------3~--|
pm   .  .        .    .  .       .   .     .  .       .    .  .


Riff 3a
|--------------------------------------------------|
|--------------------------------------------------|
|--------------------------------------------------|
|----------------------------------ah--------5--4--|
|-2--2--4---3--3--2--2--3--2--3--4-2b--2--2--3--2--|
|-0--0--2---1--1--0--0--1--0--1--2-----0--0--------|
pm.  .            .  .     .           .  .


Riff 3b
|--------------------------------|
|--------------------------------|
|--------------------------------|
|--------------------------------|
|-2--2--4---3--3--2--2--3--4--5--|
|-0--0--2---1--1--0--0--1--2--3--|
pm.  .            .  .


Riff 1c
|-------------------------------------|
|-------------------------------------|
|-------------------------------------|
|------2--------1--------2h3p2--------|
|------2--------1--------2h3p2---3----|
|-0--0-----0--0-----0--0-------0-3-0--|
pm.  .     .  .     .  .       .   .


Riff 4
|----------------------------|
|----------------------------|
|----ah----------------------|
|----2b----------------------|
|-2---------2----------------|
|-------0-0---3-3~--3h4-0-0--|
pm      . .             . .


Riff 5a
|-----------------------------------|
|-----------------------------------|
|-----------------------------------|
|-----------------------------4--5--|
|---3-----5-----3---3---3-5---2--3--|
|-0-1-0-0-3-0-0-1-0-1-0-1-3-0-------|
pm.   . .   . .   .   .     .


Fill
|-------------|
|-------------|
|-------------|
|-------------|
|-3--3--3--3--|
|-1--1--1--1--|
pm.  .  .  .


Riff 5b
|--------------------------------------------------|
|--------------------------------------------------|
|--------------------------------------------------| Gtr.
|-------------------------------------------4--5---|  1
|----3--------5--------3-----3-----3--5-----2--3---|
|-0--1--0--0--3--0--0--1--0--1--0--1--3--0---------|
pm.     .  .     .  .     .     .  .     .         |
|						   |
|--------------------------------------------------|
|--------------------------------------------------|
|--------------------------------------------------| Gtr.
|------------------------------------------ah-ah---|  2
|----3--------5--------3-----3-----3--5-----2--3~--|
|-0--1--0--0--3--0--0--1--0--1--0--1--3--0---------|
pm.     .  .     .  .     .     .  .     .


Riff 5c
|--------------------------------------------|
|--------------------------------------------|
|--------------------------------------------| Gtr.
|--------------------------------------4--5--|  1
|--------------------------------------2--3--|
|-0--1--0--0--3--0--0--1-0-1-0--1--3-0-------|
|					     |
|--------------------------------------------|
|--------------------------------------------|
|--------------------------------------------| Gtr.
|-------------------------------------ah-ah--|  2
|--------------------------------------2--3~-|
|-0--1--0--0--3--0--0--1-0-1-0--1--3-0-------|


Riff 5d
|--------------------------------------------------|
|--------------------------------------------------|
|--------------------------------------------------| Gtr.
|-------------------------------------------4--5---|  1
|----1--------3--------1-----1-----1--3-----2--3---|
|-0--1--0--0--3--0--0--1--0--1--0--1--3--0---------|
pm.     .  .     .  .     .    . .       .         |
|						   |
|--------------------------------------------------|
|--------------------------------------------------|
|--------------------------------------------------| Gtr.
|------------------------------------------ah-ah---|  2
|----1--------3--------1-----1-----1--3-----2--3~--|
|-0--1--0--0--3--0--0--1--0--1--0--1--3--0---------|
pm.     .  .     .  .     .     .        .


Riff 5e
|----------------------------------------------------|
|----------------------------------------------------|
|----------------------------------------------------| Gtr.
|------------------------------------------ah-ah-----|  1
|----1--------3--------1-----1-----1--3-----2--3~----|
|-0--1--0--0--3--0--0--1--0--1--0--1--3--0-----------|
pm.     .  .     .  .     .     .        .           |
|						     |
|----------------------------------------------------|
|----------------------------------------------------|
|------------------------------------------ah-ah-ah--| Gtr.
|------------------------------------------------2b--|  2
|----7-----6--5-----2--3-----7-----6--5-----2--3-----|
|-0-----0--------0--------0-----0--------0-----------|
pm.     .        .        .     .        .


Fill 2
|--------------|
|--------------|
|--------------|
|--------------|
|-3--3--3-ah---|
|-1--1--1--1~--|
            
Submit corrections


        Nothing Is Not lessons Hard to play? Try these video lessons and learn fast Nothing Is Not lessons
        
↑ Back to top | Tablatures and chords for acoustic guitar and electric guitar, ukulele, drums are parodies/interpretations of the original songs. You may use it for private study, scholarship, research or language learning purposes only