» » »

Morbid Angel - Hellspawn: The Rebirth Tabs

Artists:  A B C D E F G H I J K L M N O P Q R S T U V W X Y Z # 

Hellspawn: The Rebirth Tabs

(ver. 1) Click to play this song!
Morbid Angel
 Rating:
4/5 (4 votes)

 Hellspawn: The Rebirth lessons Tabs too difficult? Try these video lessons and learn fast
 
                MORBID ANGEL - HELLSPAWN: THE REBIRTH
(Formulas Fatal To The Flesh, 1998)

Key
= after note = vibrato
^ after note = heavy vibrato 
\ = slide down
/ = slide up
+ = tap
h = hammer
p = pull
n = natural harmonic
s = pinching harmonic (squeal)
* = tremolo pick
t = trill
b = bend
|-3-| = triplet

n number above the tab = play the first part then the first finishing part
			 play the first part a second time and then play the second finishing part
			 etc.

Tune Down 1/2 Step

Riff 1

Eb -------------------------
Bb -------------------------
Gb -------------------------
Db -7--8--7--6--7--6--5--6--
Ab -7--8--7--6--7--6--5--6--
Eb -5--6--5--4--5--4--3--4--

Riff 1A

Eb -------------------------
Bb -------------------------
Gb -------------------------
Db -7--8--7--6--7--6--5--6--
Ab -5--8--7--6--7--6--5--6--
Eb -5--6--5--4--5--4--3--4--

Riff 2

Eb ---------------------------
Bb ---------------------------
Gb ---------------------------
Db ---------------------------
Ab -------1*----------1*--4*--
Eb -0*----------2*------------

Riff 2A

Eb ---------------------
Bb ---------------------
Gb ---------------3--6--
Db -2--------4----3--6--
Ab -2--------4----1--4--
Eb -0--------2----------

Riff 2B

Eb -------------------------
Bb -------------------------
Gb -------------------3--6--
Db -------------------3--6--
Ab -------1*----------1--4--
Eb -0*----------2*----------

Riff 3

Eb --------------------------------------------------------------
Bb --------------------------------------------------------------
Gb ---------5/6-----------5-6------------5-6---------------------
Db ---------5/6-----------5-6-5----------5-6---------------------
Ab ---------3/4-----------3-4-5----------3-4---------------------
Eb -5-5-5-5-------5-5-5-5-----3--5-5-5-5-----5-5-5*--6*--3*--6*--

Riff 3A

Eb ----------------------------------------------------
Bb ----------------------------------------------------
Gb ---------5/6-----------5/6------------5-6-----------
Db ---------5/6-----------5/6-5----------5-6-----8--4--
Ab ---------3/4-----------3/4-5----------3-4-----8--4--
Eb -5-5-5-5-------5-5-5-5-----3--5-5-5-5-----5-5-6--2--

Riff 4

Eb ---------------------------------
Bb ---------------------------------
Gb -0-2-----0-2-----0-2-----3-5-----
Db -----0-3-----0-3-----0-3-----0-3-
Ab ---------------------------------
Eb ---------------------------------

Order

Riff 1 x 4
Riff 1A x 4
Riff 2 x 3
Riff 2/2A x 1
Riff 2 x 4
Riff 2B x 2
Riff 3 x 1
Riff 3A x 1
Riff 2 x 4
Riff 2B x 2
Riff 3 x 3
Riff 3A x 1
Riff 4 x 4
Riff 2 x 4
Riff 2B x 2
Riff 3 x 3
Riff 3 x 1
Riff 4 x 4
Riff 2 x 4
Riff 2B x 2
Riff 3 x 3
Riff 3A x 1
Solo over Riff 4 x 4
Solo over Riff 2B x 2 
            
Submit corrections


        Hellspawn: The Rebirth lessons Hard to play? Try these video lessons and learn fast Hellspawn: The Rebirth lessons
        
↑ Back to top | Tablatures and chords for acoustic guitar and electric guitar, ukulele, drums are parodies/interpretations of the original songs. You may use it for private study, scholarship, research or language learning purposes only