» » »

Morbid Angel - Heaving Earth Tabs

Artists:  A B C D E F G H I J K L M N O P Q R S T U V W X Y Z # 

Heaving Earth Tabs

(ver. 1) Click to play this song!
Morbid Angel
 Rating:
4/5 (4 votes)

 Heaving Earth lessons Tabs too difficult? Try these video lessons and learn fast
 
                Album:formulas fatal to the flesh

Version 1.1


============================================================================
Notation: b = full bend         / = slide up            a.h. = artificial
          r = release		\ = slide down		       harmonic	
          ~ = vibrato		h = hammer-on		tr = trillo
	  . = palm mute(pm)	p = pull-off            t = tapping   
        " = tremolo pick   
============================================================================                             
Tuning: Eb Bb Gb Db Ab Eb Bb(seven string)

time:3/4
                                                                         x2
|---------------------------------------------------------------------------|
|---------------------------------------------------------------------------|
|---------------------------------------------------------------------------|
|---------------5-------------------------------------6---------------------|
|---------------3-------------------------------------4---------------------|
|-2222--4-5-4-2----2222--4-5-4-2-5-4-2--2222--4-5-4-2---2222--4-5-4-2-5-4-2-|



|---------------------------------------------------------------------------|
|---------------------------------------------------------------------------|
|---------------------------------------------------------------------------|
|--9-8-6----9-8-6----9-8-6-----9-8-6----------------------------------------|
|--7-6-4----7-6-4----7-6-4-----7-6-4----------------------------------------|
|--7-6-4----7-6-4----7-6-4-----7-6-4----------------------------------------|
   . . .    . . .    . . .     . . .

 very fast..
|---------------------------------------------------------------------------|
|---------------------------------------------------------------------------|
|---------------------------------------------------------------------------|
|---------------------------------------------------------------------------|
|----------------------2--------------------3-4-----------------------------|
|-5-4-2-5-4-2-5-4-2--5----5-4-2-5-4-2-5-4-2---------------------------------|
  " " " " " " " " "       " " " " " " " " "  


|---------------------------------------------------------------------------|
|---------------------------------------------------------------------------|
|---------------------------------------------------------------------------|
|---------------------------------------------------------------------------|
|----------------------2---------------0-0-0-2------------------------------|
|-5-4-2-5-4-2-5-4-2--5----5-4-2-5-4-2--0-0-0-2------------------------------|
  " " " " " " " " "       " " " " " "  . . . 



|---------------------------------------------------------------------------|
|---------------------------------------------------------------------------|
|---------------------------------------------------------------------------|
|-7-7-7-7-8-8-8-8-11-11-11-11-8-8-8-8-7-7-7-7-------------------------------|
|---------------------------------------------10-10-10-10-8-8-8-8-7-7-7-7---|
|---------------------------------------------------------------------------|



|---------------------------------------------------------------------------|
|---------------------------------------------------------------------------|
|---------------------------------------------------------------------------|
|---------------------------------------------------------------------------|
|---------------------------------------------------------------------------|
|---------------------------------------------------------------------------|



|---------------------------------------------------------------------------|
|---------------------------------------------------------------------------|
|---------------------------------------------------------------------------|
|---------------------------------------------------------------------------|
|---------------------2-4-5-------------------------------------------------|
|-------2-3-5-3-5-3-2-------------------------------------------------------|
|-2-3-5---------------------------------------------------------------------|
  . . . . . . . . . . . . .very fast 



|---------------22----------22-23-22----------------------------------------|
|--/21-20-21-20----20-21-20----------21-20----------------------------------|
|------------------------------------------20-19----------------------------|
|------------------------------------------------19-18-19-18----------------|
|------------------------------------------------------------18-17----------|
|---------------------------------------------------------------------------|
|---------------------------------------------------------------------------|
just the end...                                                   some bar.....
            
Submit corrections


        Heaving Earth lessons Hard to play? Try these video lessons and learn fast Heaving Earth lessons
        
↑ Back to top | Tablatures and chords for acoustic guitar and electric guitar, ukulele, drums are parodies/interpretations of the original songs. You may use it for private study, scholarship, research or language learning purposes only