» » »

Morbid Angel - Covenant Of Death Tabs

Artists:  A B C D E F G H I J K L M N O P Q R S T U V W X Y Z # 

Covenant Of Death Tabs

(ver. 1) Click to play this song!
Morbid Angel
 Rating:
4/5 (4 votes)

 Covenant Of Death lessons Tabs too difficult? Try these video lessons and learn fast
 
                MORBID ANGEL - COVENANT OF DEATH
(Formulas Fatal To The Flesh, 1998)

Key
= after note = vibrato
^ after note = heavy vibrato 
\ = slide down
/ = slide up
+ = tap
h = hammer
p = pull
n = natural harmonic
s = pinching harmonic (squeal)
* = tremolo pick
t = trill
b = bend
|-3-| = triplet

n number above the tab = play the first part then the first finishing part
			 play the first part a second time and then play the second finishing part
			 etc.

Tune Down 1/2 Step

Riff 1

Eb ------------------------------------------------------------
Bb ------------------------------------------------------------
Gb ------------------------------------------------------------
Db ------------------------------------------------------------
Ab ------------------------------------------------------------
Eb -3*----1*--3*--6*--5*--6*--5*--3*----1*--3*--6*--5*--6*--1--

Riff 1A

Eb -----------------------------------------------
Bb -----------------------------------------------
Gb -----------------------------------------------
Db -5----3--5--8--7--8--7--5----3--5--8--7--8-----
Ab -5----3--5--8--7--8--7--5----3--5--8--7--8-----
Eb -3----1--3--6--5--6--5--3----1--3--6--5--6--1--

Riff 1B

Eb ---------------------------------------------------------
Bb ---------------------------------------------------------
Gb ---------------------------------------------------------
Db ---------------------------------------------8-8-7-8---3-
Ab ---------------------------------------------8-8-7-8---3-
Eb -3*----1*--3*--6*--5*--6*--5*--3*----1*--3*--6-6-5-6---1-

Riff 1C

Eb ---------------------------------------------------
Bb ---------------------------------------------------
Gb ---------------------------------------------------
Db -5------3--5--8--7--8--7--5------3--5--8--7--8-----
Ab -5------3--5--8--7--8--7--5------3--5--8--7--8-----
Eb -3--3-3-1--3--6--5--6--5--3--3-3-1--3--6--5--6--2--

Riff 2

Eb --------------------------------------------------------------------------
Bb --------------------------------------------------------------------------
Gb --------/5----------------------/5----------------------/5----------------
Db --------/5----------------------/5----------------------/5--------/8---4--
Ab --------/3----------------------/3----------------------/3--------/8---4--
Eb -0--0-0-------0-0-/5==\--0--0-0-------0-0-/5==\--0--0-0-------0-0-/6---2--

Riff 3

Eb -------------------------------------------------------------------------------------------------------------
Bb -------------------------------------------------------------------------------------------------------------
Gb -------------------------------------------------------------------------------------------------------------
Db -5------3--4--5----------------5------3--4--5--5--8--5--5------3--4--5--------------5------3--4--8-8-8-8-----
Ab -5------3--4--5----------------5------3--4--5--5--8--5--5------3--4--5--------------5------3--4--8-8-8-8-----
Eb -3--3-3-1--2--3--3-3-3-3-3-3-3-3--3-3-1--2--3--3--6--3--3--3-3-1--2--3--3-3-3-3-3-3-3--3-3-1--3--6-6-6-6-----

Riff 4

Eb ---------------------------------------------------------------------------------------------------
Bb ---------------------------------------------------------------------------------------------------
Gb ----7----7--5---5---5-----7----7--5---5---5--9-----10-----12-----14-----9-----10-----12-----14-----
Db ----7----7--5---5---5-----7----7--5---5---5--9-----10-----12-----14-----9-----10-----12-----14-----
Ab ----5----5--3---3---3-----5----5--3---3---3--7-----8 -----10-----12-----7-----8 -----10-----12-----
Eb -0--5----5--3---3---3--0--5----5--3---3---3-----0------0------0------0-----0------0------0------0--

Eb -----------------------------------------------------------------------------------------------
Bb -----------------------------------------------------------------------------------------------
Gb ----7----7--5---5---5-----7----7--5---5---5--9-----10-----12-----14-----9-----10-----13--------
Db ----7----7--5---5---5-----7----7--5---5---5--9-----10-----12-----14-----9-----10-----13--------
Ab ----5----5--3---3---3-----5----5--3---3---3--7-----8 -----10-----12-----7-----8 -----11--------
Eb -0--5----5--3---3---3--0--5----5--3---3---3-----0------0------0------0-----0------0------------

Riff 5

Eb ------------------------------------------------------------------------------------------------
Bb ------------------------------------------------------------------------------------------------
Gb -9-----10-----12-----14-----9-----10-----12-----14-----9-----10-----12-----14-------------------
Db -9-----10-----12-----14-----9-----10-----12-----14-----9-----10-----12-----14-----7-6-7-10---9--
Ab -7-----8 -----10-----12-----7-----8 -----10-----12-----7-----8 -----10-----12-----7-6-7-10---9--
Eb ----0------0------0------0-----0------0------0------0-----0------0------0------0--5-4-5-8 ---7--

Eb -----------------------------------------------------------------------------------------------------------
Bb -----------------------------------------------------------------------------------------------------------
Gb -9-----10-----12-----14-----9-----10-----12-----14-----9-----10-----12-----14------------------------------
Db -9-----10-----12-----14-----9-----10-----12-----14-----9-----10-----12-----14-----7-6-7-10---9--7-6-7-10---
Ab -7-----8 -----10-----12-----7-----8 -----10-----12-----7-----8 -----10-----12-----7-6-7-10---9--7-6-7-10---
Eb ----0------0------0------0-----0------0------0------0-----0------0------0------0--5-4-5-8 ---7--5-4-5-8 ---

Eb -----------------------------------
Bb -----------------------------------
Gb -----------------------------------
Db -9--9--9--9------9--9--9--9--9---9-
Ab -9--9--9--9------9--9--9--9--9---9-
Eb -7--7--7--7------7--7--7--7--7---7-

Riff 6

Eb ------------------------------
Bb ------------------------------
Gb ------------------------------
Db ---6/9--6------6-5-5--5--5-6--
Ab ---6/9--6------6-5-5--5--5-4--
Eb -4-4/7--4--4-4-4-3-3--3--3-4--

Riff 6A

Eb ------------------------------
Bb ------------------------------
Gb ------------------------------
Db ---6/9--6------6-5-5--5--5-6--
Ab ---6/9--4------4-3-3--3--3-4--
Eb -4-4/7--4--4-4-4-3-3--3--3-4--

Riff 6B

Eb -----------------------------
Bb -----------------------------
Gb -----------------------------
Db ---6/9--6------6-5-5----6----
Ab ---6/9--4------4-3-3----4----
Eb -4-4/7--4--4-4-4-3-3----4----

Riff 7

Eb ---------------------------------------------------------------------------------------------
Bb ---------------------------------------------------------------------------------------------
Gb ---------------------------------------------------------------------------------------------
Db ---------------------------------------------------------------------------------------------
Ab -5-4-3-4-0--------------2-------5-4-3-4-0--------------2------5-4-3-4-0--------------2-------
Eb ------------0-2-5-0-2-3---2-3-2------------0-2-5-0-2-3---1-2-------------0-2-5-0-2-3---2-3-2-

Eb --------------------------------
Bb --------------------------------
Gb --------------------------------
Db ------------------------4-3-1-3-
Ab -5-4-3-4-0----------------------
Eb ------------0-2-5-0-2-3---------

Riff 7A

Eb --------------------------------------------------------------------------------------------------
Bb --------------------------------------------------------------------------------------------------
Gb --------------------------------------------------------------------------------------------------
Db --------------------------------------------------------------------------------------------------
Ab -------------------------2-----------1-------3-----------2-1---1-------------------------2--------
Eb -3-4-4-1-3-4-3-3-3-4-3-4---4-3-4-3-4-1-1-3-4-3-1-3-4-3-4-----4---1-3-4-1-3-4-3-1-3-4-3-4---4-3-s4-

Eb ---------------------------------
Bb ---------------------------------
Gb ---------------------------------
Db ---------------------------------
Ab -------------------------2-1---1-
Eb -3-4-1-3-4-3-4-1-3-4-3-4-----4---

Riff 7B

Eb --------------------------------------------------------------
Bb --------------------------------------------------------------
Gb --------------------------------------------------------------
Db --------------------------------------------------------------
Ab -5-4-3-4-0--------------2-------5-4-3-4-0--------------2------
Eb ------------0-2-5-0-2-3---2-3-2------------0-2-5-0-2-3---2-3--

Riff 7C

Eb -----------------------------------------------------------------
Bb -----------------------------------------------------------------
Gb -----------------------------------------------------------------
Db -----------------------------------------------------------------
Ab -------------------------------s2-------------------------3------
Eb -1-3-4-1-3-4-1-3-4-3-4-3-1-3-4----3-4-1-3-4-1-3-4-1-3-4-3---s4---

Riff 8

Eb -----------------------------------------------------------------------------------------------
Bb -----------------------------------------------------------------------------------------------
Gb --------9--8--------------------9--8-------------------9--8--------------------9--8------------
Db ----------------------------------------4-3-1-3------------------------------------------------
Ab -4--------------2-1---1-/4----------------------4--------------2-1---1-/4--------------5-4-3-4-
Eb --------7--6--------4-----------7--6-------------------7--6--------4-----------7--6------------

Riff 8A

Eb --------------------------------------------------------------------------------------------
Bb --------------------------------------------------------------------------------------------
Gb --------9--8-------------------9--8-------------------9--8------------------9--8------------
Db --------------------------------------------------------------------------------------------
Ab -4--------------2-1---1-4--------------2-1---1-4-------------2-1---1-4--------------5-4-3-4-
Eb --------7--6--------4----------7--6--------4----------7--6-------4----------7--6------------

Riff 9

Eb -----0---3-0---3-0---0--------------2---5-2---------------------
Bb ---0---0-----0-----0---0----------2---2-------2-----3-------2---
Gb -----------------------------5--------------------2---2---2---2-
Db ---------------------------5--------------------0---------------
Ab -------------------------3------------------------------4-------
Eb -0------------------------------2-----------2-------------------

Riff 10

Eb ----------------------------------------
Bb ----------------------------------------
Gb -9------------5\----11--------7----6----
Db ----------------------------------------
Ab ----------------------------------------
Eb -7------------3\----9 --------5----4----

Order

Riff 1 x 1
Riff 1A x 1
Riff 1 x 3
Riff 1B x 1
Riff 2 x 2
Riff 3 x 1
Riff 1 x 3
Riff 1B x 1
Riff 2 x 2
Riff 3 x 1
Solo over Riff 1C x 6
Solo over Riff 4 x 1
Solo over Riff 5 x 1
Riff 6 x 2
Riff 6A x 5
Riff 6B x 1
Riff 7/7A x 1
Riff 8/8A x 1
Riff 7/7A x 1
Riff 8/8A x 1
Riff 7B/7C x 1
Riff 9 x 4
Riff 10 x 4
            
Submit corrections


        Covenant Of Death lessons Hard to play? Try these video lessons and learn fast Covenant Of Death lessons
        
↑ Back to top | Tablatures and chords for acoustic guitar and electric guitar, ukulele, drums are parodies/interpretations of the original songs. You may use it for private study, scholarship, research or language learning purposes only