» » »

Morbid Angel - Chambers Of Dis Tabs

Artists:  A B C D E F G H I J K L M N O P Q R S T U V W X Y Z # 

Chambers Of Dis Tabs

(ver. 1) Click to play this song!
Morbid Angel
 Rating:
4/5 (4 votes)

 Chambers Of Dis lessons Tabs too difficult? Try these video lessons and learn fast
 
                MORBID ANGEL - CHAMBERS OF DIS
(Formulas Fatal To The Flesh, 1998)

Key
= after note = vibrato
^ after note = heavy vibrato 
\ = slide down
/ = slide up
+ = tap
h = hammer
p = pull
n = natural harmonic
s = pinching harmonic (squeal)
* = tremolo pick
t = trill
b = bend
|-3-| = triplet

n number above the tab = play the first part then the first finishing part
			 play the first part a second time and then play the second finishing part
			 etc.

Tune Down 1/2 Step

Riff 1

Eb -------------------------------------------------------------
Bb -------------------------------------------------------------
Gb -------------------------------------------------------------
Db -------------------------------------------------------------
Ab -------------------------------------------------------------
Eb -00-0-00-0-33-0-11-0-33-0-33-0-00-0-00-0-33-0-11-0-33-0-33-0-

Riff 1A

Eb ---------------------------------------------------------
Bb ---------------------------------------------------------
Gb ---------------------------------------------------------
Db -------------------7----------------------------9-7----7-
Ab -------------7-8-7---10-9-10-------------7-10-7-----10---
Eb -00-0-00-0-0-----------------00-0-00-0-0-----------------

Riff 1B

Eb ----------------------------------------------------------
Bb ----------------------------------------------------------
Gb ----------------------------------------------------------
Db --------------------------------------------------------3-
Ab --------------------------------------------------------3-
Eb -00-0-00-0-33-0-11-0-33-0-33-0-00-0-00-0-33-0-11-0-33-0-1-

Riff 1C

Eb -------------------------------------------------------
Bb -------------------------------------------------------
Gb -------------------------------------------------------
Db -------------------7----------------------------9----7-
Ab -------------7-8-7---10-9-10-------------7-10-7---10---
Eb -00-0-00-0-0-----------------00-0-00-0-0---------------

Riff 2

Eb ------------------------------------------------------------------------
Bb ------------------------------------------------------------------------
Gb ------------------------------------------------------------------------
Db -------------------------------------------------------8-8---10--10-10--
Ab -------------------------------------------------------8-8---10--10-10--
Eb -3-3-33-3-3-3-33-3-3-3-33-3-3-3-33-3-3-3-33-3-3-3-33-3-6-6-3-8 --8 -8 --

   1
Eb ---------------------------------------------------------------------
Bb ---------------------------------------------------------------------
Gb ---------------------------------------------------------------------
Db -------------------------------------------------------8-8---7--7-7--
Ab -------------------------------------------------------8-8---7--7-7--
Eb -3-3-33-3-3-3-33-3-3-3-33-3-3-3-33-3-3-3-33-3-3-3-33-3-6-6-3-5--5-5--

   2
Eb --------------------------------------------------------------------
Bb --------------------------------------------------------------------
Gb --------------------------------------------------------------------
Db -------------------------------------------------------8-8---8------
Ab -------------------------------------------------------8-8---8------
Eb -3-3-33-3-3-3-33-3-3-3-33-3-3-3-33-3-3-3-33-3-3-3-33-3-6-6-6-6---0--

Riff 2A

Eb ------------------------------------------------------------------------
Bb ------------------------------------------------------------------------
Gb ------------------------------------------------------------------------
Db -------------------------------------------------------8-8---10--10-10--
Ab -------------------------------------------------------8-8---10--10-10--
Eb -3-3-33-3-5-3-33-3-6-3-33-3-5-3-33-3-6-3-33-3-5-3-33-3-6-6-3-8 --8 -8 --

   1
Eb ---------------------------------------------------------------------
Bb ---------------------------------------------------------------------
Gb ---------------------------------------------------------------------
Db -------------------------------------------------------8-8---7--7-7--
Ab -------------------------------------------------------8-8---7--7-7--
Eb -3-3-33-3-5-3-33-3-6-3-33-3-5-3-33-3-6-3-33-3-5-3-33-3-6-6-3-5--5-5--

   2
Eb --------------------------------------------------------------------
Bb --------------------------------------------------------------------
Gb --------------------------------------------------------------------
Db -------------------------------------------------------8-8---8------
Ab -------------------------------------------------------8-8---8------
Eb -3-3-33-3-5-3-33-3-6-3-33-3-5-3-33-3-6-3-33-3-5-3-33-3-6-6-6-6---0--

Riff 3

Eb ---------------------------------------------------------------------
Bb ---------------------------------------------------------------------
Gb -------------------------------------------------11-11-11--12-12-12--
Db -4-------7-8-7-8-5-------7-8-7-8-4-------7-8-7-8-11-11-11--12-12-12--
Ab -4-------7-8-7-8-5-------7-8-7-8-4-------7-8-7-8-9 -9 -9 --10-10-10--
Eb -2-1-1-1-5-6-5-6-3-2-2-2-5-6-5-6-2-1-1-1-5-6-5-6---------------------

Eb ---------------------------------------------------------------
Bb ---------------------------------------------------------------
Gb ---------------------------------------------------------------
Db -4-------7-------4-------7-8-7-8-4-------7-------4-3-4-8--7-8--
Ab -4-------7-------4-------7-8-7-8-4-------7-------4-3-4-8--7-8--
Eb -2-1-1-1-5-5-5-5-2-2-2-2-5-6-5-6-2-1-1-1-5-5-5-5-2-1-2-6--5-6--

Riff 3A

Eb ------------------------------------------------------------------
Bb ------------------------------------------------------------------
Gb ------------------------------------------------------------------
Db -4-------7-------4-------7-8-7-8-4-------7-------4-------7-8-7-8--
Ab -4-------7-------4-------7-8-7-8-4-------7-------4-------7-8-7-8--
Eb -2-1-1-1-5-5-5-5-2-2-2-2-5-6-5-6-2-1-1-1-5-5-5-5-2-1-1-1-5-6-5-6--

Eb ---------------------------------------------------------------
Bb ---------------------------------------------------------------
Gb ---------------------------------------------------------------
Db -4-------7-------4-------7-8-7-8-4-------7-------4-3-4-8--7-8--
Ab -4-------7-------4-------7-8-7-8-4-------7-------4-3-4-8--7-8--
Eb -2-1-1-1-5-5-5-5-2-2-2-2-5-6-5-6-2-1-1-1-5-5-5-5-2-1-2-6--5-6--

Riff 3B

Eb ---------------------------------------------------------------------
Bb ---------------------------------------------------------------------
Gb -------------------------------------------------11-11-11--12-12-12--
Db -5-------7-8-7-8-5-------7-8-7-8-4-------7-8-7-8-11-11-11--12-12-12--
Ab -4-------7-8-7-8-5-------7-8-7-8-4-------7-8-7-8-9 -9 -9 --10-10-10--
Eb -2-1-1-1-5-6-5-6-3-2-2-2-5-6-5-6-2-1-1-1-5-6-5-6---------------------

Riff 4

Eb ------------------------------------------------------------------------------------------------------------
Bb ------------------------------------------------------------------------------------------------------------
Gb ---------9--------------5--4-8--------9-------9-9-8-9-11--12-11---------9--------------5--4-8--------9------
Db ------------------------------------------------------------------------------------------------------------
Ab ---------7--------------3--2-6--------7-------7-7-6-7-9 --10-9 ---------7--------------3--2-6--------7------
Eb -0-0-0-0----0-0-0-0-0-0---------0-0-0---0-0-0-------------------0-0-0-0----0-0-0-0-0-0---------0-0-0----0-0-

Eb ----------------
Bb ----------------
Gb -9-9-8-5-8--5-4-
Db ----------------
Ab -7-7-6-3-6--3-2-
Eb ----------------

Riff 5

Eb ------------------------------------------------------------
Bb ------------------------------------------------------------
Gb ---------4------------------------------4-------------------
Db ---------4------------------------------4-------------------
Ab ---------2--------------2-3-2-3---------2------2-3-2-3-6----
Eb -0-0-0-0----0-0-0-0-0-0-2-3-2-3-0-0-0-0----0-0-2-3-2-3-6----

Riff 6

Eb ---------------------------------------------------------------
Bb ---------------------------------------------------------------
Gb ---------------------------------------------------------------
Db ---------------------------------------------------------------
Ab -2-2-5-2-6-2-5-2-6-2-5-2-6-2-5-2-6-2-5-2-6-2-5-2---------------
Eb -------------------------------------------------5-3-2-3--2-3--

Eb --------------------------------------------------------------
Bb --------------------------------------------------------------
Gb --------------------------------------------------------------
Db -------------------------------------------------4--5-7--5-4--
Ab -2-2-5-2-6-2-5-2-6-2-5-2-6-2-5-2-6-2-5-2-6-2-5-2-4--5-7--5-4--
Eb -------------------------------------------------2--3-5--3-2--

Riff 7

Eb --------------------------------------------------------------------------------------------------------------
Bb --------------------------------------------------------------------------------------------------------------
Gb --------------------------------------------------------------------------------------------------------------
Db -----------------------------------------7--4--7--4----------------------------------------------4--5-7--5-4--
Ab -2-2-2-2-2-2-6-7-2-2-2-2-2-2-2-2-2-2-2-2-7--4--7--4--2-2-2-2-2-2-6-2-2-2-2-2-2-2-2-2-2-2-2-2-2-2-4--5-7--5-4--
Eb -----------------------------------------5--2--5--2----------------------------------------------2--3-5--3-2--

Order

Riff 1/1A x 1
Riff 1B/1C x 1
Riff 2/2A x 1
Riff 3 x 2
Riff 2/2A x 1
Riff 3 x 2
Riff 1/1A x 4
Riff 1B/1C x 1
Solo over Riff 4 x 2
Riff 5 x 2
Riff 4 x 2
Riff 1/1A x 1
Riff 1B/1C x 1
Riff 6 x 2
Solo over Riff 7 x 2
Solo over Riff 3A x 1
Riff 2/2A x 1
Riff 3 x 1
Riff 3B x 1
            
Submit corrections


        Chambers Of Dis lessons Hard to play? Try these video lessons and learn fast Chambers Of Dis lessons
        
↑ Back to top | Tablatures and chords for acoustic guitar and electric guitar, ukulele, drums are parodies/interpretations of the original songs. You may use it for private study, scholarship, research or language learning purposes only