Home » M » Moonstar 88 »

Moonstar 88 - Tadhana Tabs

Artists:  A B C D E F G H I J K L M N O P Q R S T U V W X Y Z # 

Tadhana Tabs

(ver. 1) Click to play this song!
Moonstar 88
Album:Todo Combo

I would like to greet Mr.Marky 143(tnx a lot man)
and my new classmates in Our Lady of Fatima University(Lagro)
              
For your questions or suggestions,just post in friendster comment,PM or mail me.

Gtr.Legends:
/ - slide
~ - let it ring
. - palm muting

Gtr.Tuning:Standard(Normal)

Intro:
e|-4-4444--777---------4-4444--777------|
B|-5-5555--777--9999---5-5555--777--9---|
G|-6-6666--999--9999---6-6666--999--9---|
D|-6-6666--999--7777---6-6666--999--7---|
A|-4-4444--777---------4-4444--777------|
E|--------------------------------------|
                                    .

Verse 1:Nalimutan mo na ba...
Guitar 1
e|------------------|
B|------------------|
G|------------------| 8x
D|-66666-999--------|
A|-44444-777-7777---|
E|-----------5555---|
   ..... ... ....

Guitar Enters playing the Intro part

Chorus:Tadhana,bakit ka nakita...
Gtr. 1
e|------4444--4444444444444444---|
B|------5555--4444444444444444---|
G|-1111-6666--4444444444444444---| 2x
D|-2222-6666--6666666666666666---|
A|-2222-4444--6666666666666666---|
E|-0000-------4444444444444444---|

Gtr.2
e|-------------------------------|
B|-------------------------------|
G|-------------------------------| 2x
D|-9999-6666----4-6-8----4-6-8---|
A|-7777-4444--6-2-4-6--6-2-4-6---|
E|------------4--------4---------|


Pre-Verse 2

Gtr. 1
e|-4-4444--777---------|
B|-5-5555--777--9999---|
G|-6-6666--999--9999---|
D|-6-6666--999--7777---|
A|-4-4444--777---------|
E|---------------------|
                                    
Gtr.2
e|-------------|
B|--------5~---|
G|-4/6-6-------| 2x
D|-------------|
A|-------------|
E|-------------|

Verse 2:
Play Verse 1

Repeat Chorus:

Bridge prt.1:Di na matitiis...
e|---5-----5-----5-----5-----4----4----4-----4--    -----------------|
B|---5-----5-----5-----5-----5----5----5-----5--    -----------------|
G|---6-----6-----6-----6---6-6-66-6-66-6--66-6-- 3x ------11111111---|
D|-7----77----77----77-----6---66---66----66----    -7777-11111111---|
A|-7----77----77----77-----4---44---44----44----    -7777--9-9-9-9---|
E|-5----55----55----55--------------------------    -5555------------|

Bridge prt.2:Nalimutan mo na ba...
Gtr.1:Play Intro

Gtr. 2
e|-----4----4--------4--------------|
B|---5----5--------5--------9-------|
G|-6----6-----6--4--------9---9-----| 6x
D|----------------------7-------7---|
A|----------------------------------|
E|----------------------------------|

Repeat Chorus:

Outro:
Gtr.1
Play Intro

Gtr.2
e|-----4----4--------4--------------
B|---5----5--------5--------9-------
G|-6----6-----6--4--------9---9----- 12x
D|----------------------7-------7--- Then
A|----------------------------------
E|----------------------------------

Last Chord
-4~----|
-5~----|
-6~----|
-------|
-------|
-------|

End...
            
Submit corrections

↑ Back to top | Tablatures and chords for acoustic guitar and electric guitar, ukulele, drums are parodies/interpretations of the original songs. You may use it for private study, scholarship, research or language learning purposes only