Home » M » Moonstar 88 »

Moonstar 88 - Gilid Tabs

Artists:  A B C D E F G H I J K L M N O P Q R S T U V W X Y Z # 

Gilid Tabs

(ver. 1) Click to play this song!
Moonstar 88
GILID
MOONSTAR88

INTRO/VERSE 1:
E|--------7----------------------------------12-----------------------|
B|----5--------5---4-------5---4--------10-------10--------9b10-------|
G|--4---4--------4-----4---------4----9----9------------9-------------|    REPEAT 6X
D|--------------------------------------------------------------------|
A|---------------------------------------------------9----------------|
E|--------------------------------------------------------------------|

REFRAIN:
E|---------------------------------|
B|---------------------------------|
G|--6----4----2------6----4----2---|
D|--6----4----2------6----4----2---|
A|--4----2----0------4----2----0---|
E|---------------------------------|

CHORUS:
E|-------------------------------------------------------------------------|
B|---------------------------------------------------9-9-------------9-9---|
G|--9---9---9--9--9--7---7--7--7---7--7----9-9-11-11-9-9-11-9---11---9-9---|       REPEAT 3X
D|--9---9---9--9--9--7---7--7--7---7--7----9-9-11-11-----11-9---11---------|
A|--7---7---7--7--7--5---5--5--5---5--5------------------------------------|
E|-------------------------------------------------------------------------|

E|--------------------------------------|
B|--------------------------------------|
G|--6---6---6-6-6-4---4-4-4---4-4---2---|
D|--6---6---6-6-6-4---4-4-4---4-4---2---|
A|--4---4---4-4-4-2---2-2-2---2-2---0---|
E|--------------------------------------|


VERSE 2:
CHORDS ONLY - E, Ema7, A, Ama7    repeat 4x

REPEAT REFRAIN
REFRAIN:
E|---------------------------------|
B|---------------------------------|
G|--6----4----2------6----4----2---|
D|--6----4----2------6----4----2---|
A|--4----2----0------4----2----0---|
E|---------------------------------|

REPEAT CHORUS BUT DIFFERENT ENDING FOR CHORUS:
Exchange the last 'A' chord with this few riff.
CHORUS:
E|-------------------------------------------------------------------------|
B|---------------------------------------------------9-9-------------9-9---|
G|--9---9---9--9--9--7---7--7--7---7--7----9-9-11-11-9-9-11-9---11---9-9---|       REPEAT 3X
D|--9---9---9--9--9--7---7--7--7---7--7----9-9-11-11-----11-9---11---------|
A|--7---7---7--7--7--5---5--5--5---5--5------------------------------------|
E|-------------------------------------------------------------------------|

E|-------------------------------------|
B|-------------------------------------|
G|--6---6---6-6-6-4---4-4-4---4-4------|
D|--6---6---6-6-6-4---4-4-4---4-4------|
A|--4---4---4-4-4-2---2-2-2---2-2------|
E|-------------------------------------|

E|-----------------------------|
B|-----------------------------|
G|--2--2-2--2-2--2-------------|                  REPEAT 4X
D|--2--2-2--2-2--2-------------|
A|--0--0-0--0-0--0--4-2-0-2-4--|
E|-----------------------------|

BRIDGE:
E|---------------------|
B|----------9-----12---|
G|--2------------------|              REPEAT 4X
D|--2------------------|
A|--0------------------|
E|---------------------|

REFRAIN:
E|------------------------------------------------------------------|
B|------------------------------------------------------------------|
G|--6-6-6-6-6-6-6-6-4-4-4-4-4-4-4-4-2-2-2-2-2-2-2-2-2-2-2-2-2-2-2-2-|
D|--6-6-6-6-6-6-6-6-4-4-4-4-4-4-4-4-2-2-2-2-2-2-2-2-2-2-2-2-2-2-2-2-|
A|--4-4-4-4-4-4-4-4-2-2-2-2-2-2-2-2-0-0-0-0-0-0-0-0-0-0-0-0-0-0-0-0-|
E|------------------------------------------------------------------|

E|-------------------------------|
B|-------------------------------|
G|-2-p2-p2-2-p2-p2-2---2-2---2-2-|
D|-2-p2-p2-2-p2-p2-2---2-2---2-2-|
A|-0-p0-p0-0-p0-p0-0---0-0---0-0-|
E|-------------------------------|


REPEAT CHORUS:
But different ending again, last part of chorus has riff again, please just hear the
music and study about the difference of every ending.
E|-------------------------------------------------------------------------|
B|---------------------------------------------------9-9-------------9-9---|
G|--9---9---9--9--9--7---7--7--7---7--7----9-9-11-11-9-9-11-9---11---9-9---|       REPEAT 3X
D|--9---9---9--9--9--7---7--7--7---7--7----9-9-11-11-----11-9---11---------|
A|--7---7---7--7--7--5---5--5--5---5--5------------------------------------|
E|-------------------------------------------------------------------------|

E|----------------------------------------------------------|
B|----------------------------------------------------------|
G|--6---6---6-6-6-4---4-4-4---4-4---2-2--2-2--2-------------|      REPEAT 2xl
D|--6---6---6-6-6-4---4-4-4---4-4---2-2--2-2--2-------------|
A|--4---4---4-4-4-2---2-2-2---2-2---0-0--0-0--0--4-2-0-2-4--|
E|----------------------------------------------------------|

E|--------------------------------|
B|--------------------------------|
G|--6---6---6-6-6-4---4-4-4--4-4--|
D|--6---6---6-6-6-4---4-4-4--4-4--|
A|--4---4---4-4-4-2---2-2-2--2-2--|
E|--------------------------------|


ENDING:
Repeat intro 2x
INTRO:
E|--------7----------------------------------12-----------------------|
B|----5--------5---4-------5---4--------10-------10--------9b10-------|
G|--4---4--------4-----4---------4----9----9------------9-------------|    REPEAT 2X
D|--------------------------------------------------------------------|
A|---------------------------------------------------9----------------|
E|--------------------------------------------------------------------|

E|--0-----------|
B|--0-----------|
G|--1-----------|
D|--2-----------|
A|--2-----------|
E|--0-----------|            
Submit corrections

↑ Back to top | Tablatures and chords for acoustic guitar and electric guitar, ukulele, drums are parodies/interpretations of the original songs. You may use it for private study, scholarship, research or language learning purposes only