» » »

Monster Magnet - Slap In The Face Tabs

Artists:  A B C D E F G H I J K L M N O P Q R S T U V W X Y Z # 

Slap In The Face Tabs

(ver. 1) Click to play this song!
Monster Magnet
 Rating:
4.3/5 (16 votes)

 Slap In The Face lessons Tabs too difficult? Try these video lessons and learn fast
 
                [Intro] [played with effects]                 
e|-------------------|-------------------------------------------|
B|-------------------|-------------------------------------------|
G|--9-9-9-9-9-9-9-9--|-12-12-12---14-14-14-14-14-----------------|
D|--9-9-9-9-9-9-9-9--|-12-12-12---14-14-14-14-14----repeat 4X----|
A|--7-7-7-7-7-7-7-7--|-10-10-10---12-12-12-12-12-----------------|
E|--0-0-0-0-0-0-0-0--|-x--x--x----x--x--x--x--x------------------|

[Rhythm 1] [played with effects]
e|---------------------------------------------------------------|
B|---------------------------------------------------------------|
G|--9-9-9--------------------------------------------------------|
D|--9-9-9----5---7---5------repeat 8X----------------------------|
A|--7-7-7----5---7---5-------------------------------------------|
E|--0-0-0--0-3-0-5-0-3-------------------------------------------|

[Verse] [Rhythm 2] [played with clean tone]
1."Hey babe..."
2."Well,sing it, let's talk about love..."
e|---------------------------------------------------------------|
B|-----------------------8---------------------------------------|
G|--9-9-9----x-x-x-x-----7----7----------------------------------|
D|--9-9-9----x-x-x-x-----5----7-----repeat 8X--------------------|
A|--7-7-7----x-x-x-x----------5----------------------------------|
E|---------------------------------------------------------------|

[Rhythm 3]  [played with clean tone]
"I hear the call from above..."
e|---------------------|-----------------------------------------|
B|---------------------|-----------------------------------------|
G|--14-14-14-14--14-14-|-14-14-14-14-14--12----[to Rhythm 2--2X]-|
D|--14-14-14-14--14-14-|-14-14-14-14-14--12----------------------|
A|--12-12-12-12--12-12-|-12-12-12-12-12--10----------------------|
E|---------------------|-----------------------------------------|

"You want to crawl away, don't even think about it..."
e|---------------------------------------------------------------|
B|---------------------------------------------------------------|
G|--4-4-4-4-4-4--7-7-7-7-7-7-------------------------------------|
D|--4-4-4-4-4-4--7-7-5-7-5-7-------------------------------------|
A|--2-2-2-2-2-2--5-5-5-5-5-5-------------------------------------|
E|---------------------------------------------------------------|

[Chorus][same as Rhythm 1] [played with effects]
"Inside your head,eat your meds..."
e|---------------------------------------|-----------------------|
B|-----------------------repeat 7X-------|-----------------------|
G|--9-9-9----------------after verse 1---|-----------------------|
D|--9-9-9----5---7---5---repeat 16X------|---2-----[to verse 2]--|
A|--7-7-7----5---7---5---after verse 2---|---2-------------------|
E|--0-0-0--0-3-0-5-0-3-------------------|---0-------------------|

[Bridge] [after Verse 2]
"I'm so blown away by your style and your cool..."
e|--------------------------|------------------------------------|
B|--------------------------|------------------------------------|
G|--9-9-9-9-9-9-9--12-12-12-|-14-14-14-14-14---------------------|
D|--9-9-9-9-9-9-9--12-12-12-|-14-14-14-14-14----repeat 8X--------|
A|--7-7-7-7-7-7-7--10-10-10-|-12-12-12-12-12---------------------|
E|--0-0-0-0-0-0-0-----------|------------------------------------|

[Chorus][same as Rhythm 1]
"Inside your head..."
e|---------------------------------------|-----------------------|
B|---------------------------------------|-----------------------|
G|--9-9-9--------------------------------|--12\9-----------------|
D|--9-9-9----5---7---5---repeat 15X------|--12\9---repeat 5X-----|
A|--7-7-7----5---7---5-------------------|--10\7-----------------|
E|--0-0-0--0-3-0-5-0-3-------------------|-----------------------|

[Rhythm 1][repeat this section 2X] [solos excluded]
e|---------------------------------|-----------------------------|
B|---------------------------------|-----------------------------|
G|--9-9-9--------------------------|--12\9--[first time play 5X]-|
D|--9-9-9----5---7---5---repeat 7X-|--12\9--[second time repeat to fade]|
A|--7-7-7----5---7---5-------------|--10\7-----------------------|
E|--0-0-0--0-3-0-5-0-3-------------|-----------------------------|

            
Submit corrections


        Slap In The Face lessons Hard to play? Try these video lessons and learn fast Slap In The Face lessons
        
↑ Back to top | Tablatures and chords for acoustic guitar and electric guitar, ukulele, drums are parodies/interpretations of the original songs. You may use it for private study, scholarship, research or language learning purposes only