Home » M » Monkees »

Monkees - She Bass

Artists:  A B C D E F G H I J K L M N O P Q R S T U V W X Y Z # 

She Bass

(ver. 1) Click to play this song!
Monkees
 Rating:
4/5 (4 votes)
                -------------------------------------------------------------------------------
			     She - The Monkees
-------------------------------------------------------------------------------


Tuning: Standard

Verse:

G|-----------   ---------|
D|-----------   ---------|
A|-----7-7---x? ---------|
E|---------7-   ---------|

G|----------   ----------------|
D|----------   ----------------|
A|-----5-5--x? -(5-5-6-7-7-----|
E|---------5   ------------7)--|

Pre-ch:
               
G|-----------------------------------------------------------|
D|--------------------------6-9-7-7---7-7---7-7---7-9-7-6----|
A|----7-7---7-7---7-7---7-9---------7-----7-----7------------|
E|--------7-----7-----7--------------------------------------|

Chorus

G|-------------------------------------------------------|
D|-------------------------------------------------------|
A|----7-7---77---4-4---44---7-7---77---4-4---4-5-6-------|
E|--------7----------4----------7----------4-------------|

Verse
Pre-ch
Chorus 2

G|-------------------------------------------------------|
D|-------------------------------------------------------|
A|----7-7---77---4-4---44---7-7---77---4-4---4-4-4-------|
E|--------7----------4----------7----------4-------------|

Bridge

G|-----------------------------------------------------------|
D|-----------------------------------------------------------|
A|----10-10-10-9-9-7-9-10-5-5---5-5---5-5---5-5-5------------|
E|----------------------------5-----5-----5------------------|

G|-----------------------------------------------------------------------------|
D|-----------------------------------------------------------------------------|
A|10-10-10-9-9-7-9-10-5-5---5-5---3-3---3-3---(5-5--repeat-until-55555555-etc--|
E|------------------------5-----5-----3-----3-----5)---------------------------|

Verse
Pre-ch
Chorus

G|--------------------------------------------|
D|--------------------------------------------|
A|----7-7---7-7---4-4---4-5-6-----------------|repeat till fade out
E|--------7-----7-----4-----------------------|

Sorry tab is messy but its all right. your just gunna have to figure out where it all goes


| /  slide up
| \  slide down
| h  hammer-on
| p  pull-off
| ~  vibrato
| +  harmonic
| x  Mute note
===============================================================================
            
Submit corrections

↑ Back to top | Tablatures and chords for acoustic guitar and electric guitar, ukulele, drums are parodies/interpretations of the original songs. You may use it for private study, scholarship, research or language learning purposes only