» » »

Monkees - Mary Mary Bass

Artists:  A B C D E F G H I J K L M N O P Q R S T U V W X Y Z # 

Mary Mary Bass

(ver. 1) Click to play this song!
Monkees
 Rating:
4/5 (4 votes)

 Mary Mary lessons Tabs too difficult? Try these video lessons and learn fast
 
                Tuning: EADG

0:06

G|----------------------------------------|
D|4---/-----------9-----------------------|
A|--------------------5---7---9---7---9---|
E|--------7-------------------------------|

G|----------------------------------------------------------------|
D|--------9-------------------------------------------------------|
A|------------5---7---9---7---9---------------5---7---9---7---9---|
E|7-------------------------------7-------------------------------|

G|----------------------------------------------------------------|
D|----------------------------------------9-----------------------|
A|------------5---7---9---7---9---------------5---7---9---7---9---|
E|7-------------------------------7-------------------------------|

G|----------------------------------------------------------------|
D|----------------------------------------9-----------------------| x2
A|------------5---7---9---7---9---------------5---7---9---7---9---|
E|7-------------------------------7-------------------------------|

G|----------------------------------------------------------------|
D|----------------------------------------------------------------|
A|----------------------------------------------------------------|
E|0-------0-------2-------2-------0-------0-------2-------2-------|

G|----------------------------------------------------------------|
D|----------------------------------------------------------------|
A|--------------------------------------------------------2-------|
E|0-------0-------2-------2-------0-------0-------2---------------|

G|----------------------------------------------------------------|
D|----------------------------------------------------------------|
A|----------------------------------------------------------------|
E|----------------------------------------------------------------|

G|----------------------------------------------------------------|
D|------------------------4---/-----------9-----------------------|
A|--------------------------------------------5---7---9---7---9---|
E|--------------------------------7-------------------------------|

0:39

G|----------------------------------------------------------------|
D|--------9-------------------------------------------------------|
A|------------5---7---9---7---9---------------5---7---9---7---9---|
E|7-------------------------------7-------------------------------|

G|----------------------------------------------------------------|
D|----------------------------------------------------------------|
A|------------5---7---9---7---9---------------5---7---9---7---9---|
E|7-------7-----------------------7-------7-----------------------|

G|----------------------------------------------------------------|
D|--------9-------------------------------------------------------|
A|------------5---7---9---7---9---------------5---7---9---7---9---|
E|7-------------------------------7-------------------------------|

G|----------------------------------------------------------------|
D|--------9-------------------------------------------------------|
A|------------5---7---9---7---9---------------5---7---9---7---9---|
E|7-------------------------------7-------------------------------|

G|----------------------------------------------------------------|
D|----------------------------------------------------------------|
A|----------------------------------------------------------------|
E|0-------0-------2-------2-------0-------0-------2-------2-------|

G|----------------------------------------------------------------|
D|----------------------------------------------------------------|
A|--------------------------------------------------------2-------|
E|0-------0-------2-------2-------0-------0-------2---------------|

G|----------------------------------------------------------------|
D|----------------------------------------------------------------|
A|----------------------------------------------------------------|
E|----------------------------------------------------------------|

G|----------------------------------------------------------------|
D|------------------------4---/-----------9-----------------------|
A|--------------------------------------------5---7---9---7---9---|
E|--------------------------------7-------------------------------|

1:09


G|----------------------------------------------------------------|
D|----------------------------------------------------------------| x2
A|----------------------------------------------------------------|
E|2-------2-------2-------2-------0-------0-------0-------0-------|

G|----------------------------------------------------------------|
D|----------------------------------------------------------------|
A|----------------------------------------------------------------|
E|2-------2-------2-------2-------4-------4-----------3-------2---|

G|----------------------------------------------------------------|
D|--------9-------------------------------9-----------------------|
A|------------5---7---9---7---9---------------5---7---9---7---9---|
E|7-------------------------------7-------------------------------|

G|----------------------------------------------------------------|
D|--------9-------------------------------------------------------|
A|------------5---7---9---7---9---------------5---7---9---7---9---|
E|7-------------------------------7-------------------------------|

G|----------------------------------------------------------------|
D|--------9-------------------------------------------------------|
A|------------5---7---9---7---9---------------5---7---9---7---9---|
E|7-------------------------------7-------7-----------------------|

G|----------------------------------------------------------------|
D|----------------------------------------------------------------|
A|------------5---7---9---7---9---------------5---7---9---7---9---|
E|7-------------------------------7-------7-----------------------|

G|----------------------------------------------------------------|
D|----------------------------------------9-----------------------|
A|------------5---7---9---7---9---------------5---7---9---7---9---|
E|7-------------------------------7-------------------------------|

1:40

G|----------------------------------------------------------------|
D|----------------------------------------------------------------|
A|----------------------------------------------------------------|
E|0-------0-------2-------2-------0-------0-------2-------2-------|

G|----------------------------------------------------------------|
D|----------------------------------------------------------------|
A|--------------------------------------------------------2-------|
E|0-------0-------2-------2-------0-------0-------2---------------|

G|----------------------------------------------------------------|
D|----------------------------------------------------------------|
A|----------------------------------------------------------------|
E|----------------------------------------------------------------|

G|----------------------------------------------------------------|
D|------------------------4---/-----------------------------------|
A|--------------------------------------------5---7---9---7---9---|
E|--------------------------------7-------7-----------------------|

1:55

G|----------------------------------------------------------------|
D|----------------------------------------------------------------|
A|------------5---7---9---7---9---------------5---7---9---7---9---|
E|7-------7-----------------------7-------------------------------|

G|----------------------------------------------------------------|
D|----------------------------------------9-----------------------|
A|------------5---7---9---7---9---------------5---7---9---7---9---|
E|7-------7-----------------------7-------------------------------|

G|----------------------------------------------------------------|
D|----------------------------------------------------------------| x3 to fade out.
A|------------5---7---9---7---9---------------5---7---9---7---9---|
E|7-------------------------------7-------------------------------|
            
Submit corrections


        Mary Mary lessons Hard to play? Try these video lessons and learn fast Mary Mary lessons
        
↑ Back to top | Tablatures and chords for acoustic guitar and electric guitar, ukulele, drums are parodies/interpretations of the original songs. You may use it for private study, scholarship, research or language learning purposes only