Home » M » Molly Hatchet »

Molly Hatchet - Flirtin With Disaster Bass

Artists:  A B C D E F G H I J K L M N O P Q R S T U V W X Y Z # 

Flirtin With Disaster Bass
Version #1
Molly Hatchet


Copy URL
0:01          Repeat 7x
G|-------|------------------------|------------------------------------------|
D|-------|------------------------|------------------------------------------|
A|-------|5h7-77777777777777-5----|-5h7-77777777777777-5--7-77-5-55-4-444-54-|
E|-5h7-0~|--------------------7-0~|---------------------7-------------------7|

0:24    Repeat 5x w/ ending:      1st-4th    5th
G|-||----------------------------|----------|---------||---------------------|
D|-||----------------------------|----------|---------||---------------------|
A|-||----------------------22355-|----------|---------||---------------------|
E|-||-55-20022-55-20022-33-------|-55-20022-|-55-2252-||---------------------|

0:45     Repeat 3x
G|-|---------------------------------|---------------------------------------|
D|-|----9-9-----9-9-----9-9-----9-9--|-----9-9--99--99--77--77--99-----------|
A|-|---9---9---9---9---9---9---9---9-|----9---9---9---9---9---9---99---------|
E|-|7-7-----7-7-----7-7-----7-7------|-7-7-------------------------779-------|

1:06
G|---------------------------------------------------------------------------|
D|---------------------------------------------------------------------------|
A|-------------------------------22----22----22-----22h4-5~-2h5p2h5p4p2------|
E|-10~-7h10p7h10p9p7-5~-5555p2h5----4p2---4p2---4p2---------------------5~---|

G|---------------------------------------------------------------------------|
D|---------------------------------------------------------------------------|
A|----------22----22----2----1-2-3-4-5~-5p2h5p4p2-------------22----22----22-|
E|-5555p2h5----4p2---4p2---5----------------------5~-5555p2h5----4p2---4p2---|

1:21                                            Repeat 4x       1-3    4th
G|----------------------------------------||-------------------|-----|-------|
D|----------------------------------------||-------------------|-----|-------|
A|-----22h4-5~-2h5p2h5p4p2----------------||5h7-77777777777777-|5----|5--7-77|
E|-4p2---------------------5~-5555p4p2-0~-||-------------------|-7-0~|-7-----|

   4th cont'd               Repeat 5x w/ ending       1st-4th    5th
G|---------------||---||----------------------------|----------|---------||--|
D|---------------||---||----------------------------|----------|---------||--|
A|-5-55-4-444-54-||---||----------------------22355-|----------|---------||--|
E|--------------7||---||-55-20022-55-20022-33-------|-55-20022-|-55-2252-||--|

1:59     Repeat 3x
G|-|---------------------------------|---------------------------------------|
D|-|----9-9-----9-9-----9-9-----9-9--|-----9-9--99--99--77--77--99-----------|
A|-|---9---9---9---9---9---9---9---9-|----9---9---9---9---9---9---99---------|
E|-|7-7-----7-7-----7-7-----7-7------|-7-7-------------------------779-------|

2:20
G|---------------------------------------------------------------------------|
D|---------------------------------------------------------------------------|
A|-------------------------------22----22----22-----22h4-5~-2h5p2h5p4p2------|
E|-10~-7h10p7h10p9p7-5~-5555p2h5----4p2---4p2---4p2---------------------5~---|

G|---------------------------------------------------------------------------|
D|---------------------------------------------------------------------------|
A|----------22----22----2----1-2-3-4-5~-5p2h5p4p2-------------22----22----22-|
E|-5555p2h5----4p2---4p2---5----------------------5~-5555p2h5----4p2---4p2---|

1:21                                            
G|---------------------------------------------------------------------------|
D|---------------------------------------------------------------------------|
A|-----22h4-5~-2h5p2h5p4p2-----------------75------75-----75------75------2/4|
E|-4p2---------------------5~-5555p4p2-0~----7-0~----7-0~---7-0~----7-0~-----|

G|--------------------------------------------------------7/999999999999-----|
D|----------------------2~-242-2~-242-2~-242---------------------------------|
A|-777444------------2h4------4------4------47-7777777777--------------------|
E|-------7774p0~--2/4--------------------------------------------------------|

3:00     Repeat 6x
G|-|-----------------------------------------------------------------------|-|
D|-|---------------------------------------------47-744--------------------|-|
A|-|77-4--44-77-44--44-55-2--22-55-22--------4477------774-7744-----------4|-|
E|-|----77--------77-------55--------5-0h2-55-------------------7744004477-|-|

4:03     Repeat 3x
G|-|---------------------------------|---------------------------------------|
D|-|----9-9-----9-9-----9-9-----9-9--|-----9-9--99--99--77--77--99-----------|
A|-|---9---9---9---9---9---9---9---9-|----9---9---9---9---9---9---99---------|
E|-|7-7-----7-7-----7-7-----7-7------|-7-7-------------------------779-------|

4:24
G|---------------------------------------------------------------------------|
D|---------------------------------------------------------------------------|
A|-------------------------------22----22----22-----22h4-5~-2h5p2h5p4p2------|
E|-10~-7h10p7h10p9p7-5~-5555p2h5----4p2---4p2---4p2---------------------5~---|

G|---------------------------------------------------------------------------|
D|---------------------------------------------------------------------------|
A|---------22----22----2----1-2-3-4-5~-5p2h5p4p2------------2x-5~-2h5p2h5p4p2|
E|-5555p2h5---4p2---4p2---5---------------------5~-5555p2h5------------------|

G|--------------------------------------------------------------------------|
D|--------------------------------------------------------------------------|
A|-------------------------------------7\slide down to mute-----------------|
E|-5555p2h5/12-12-12p10h11h12-0~--------------------------------------------|            
Submit corrections

↑ Back to top | Tablatures and chords for acoustic guitar and electric guitar, ukulele, drums are parodies/interpretations of the original songs. You may use it for private study, scholarship, research or language learning purposes only