» » »

Molly Hatchet - Beatin The Odds Bass

Artists:  A B C D E F G H I J K L M N O P Q R S T U V W X Y Z # 

Beatin The Odds Bass

(ver. 1) Click to play this song!
Molly Hatchet
 Rating:
4/5 (4 votes)
                ~Beatin' the Odds~
 by Molly Hatchet

G------------------------------------------------------|
D------------------------------------------------------|
A-R--5--R--5-3-0-0-0-0-0-0-0-0-0-0-0-0-3-4-3-4-0-0-0-0-|
E------------------------------------------------------|

G---------------------------------------------------|
D---------------------------------------------------|
A-0-0-0-0-0-0-0-0-5-0-0-0-0-0-0-0-0-0-0-0-0-3-4-3-4-|
E---------------------------------------------------|

G-----------------------------|
D-----------------------------|
A-0-0-0-0-0-0-0-0-0-0-0-0-5-3-|
E-----------------------------|

There are only two parts to the song, the verse and chorus
Play the verse through the guitar solo and listen for
the stops. Its an easy song but it rocks.

                    Verse

G-------------------------------------------------|
D-------------------------------------------------|
A-0-0-0-0-0-0-0-0-0-0-0-0-3-4-3-4-0-0-0-0-0-0-0-0-|
E-------------------------------------------------|

G---------------------------------------------------|
D---------------------------------------------------|
A-0-0-0-0-5-0-0-0-0-0-0-0-0-0-0-0-0-3-4-3-4-0-0-0-0-|
E---------------------------------------------------|

G---------------------|
D---------------------|
A-0-0-0-0-0-0-0-0-5-3-|
E---------------------|

                     CHORUS

G-------------------------------------------------------|
D-------------------------------------------------------|
A-3-0---0---0-3-0---0---0-3-0---0-5-5-3-3-0---0---0-3-0-|
E-----3---3-------3---3-------3-------------3---3-------|

G-------------------|
D-------------------|
A---0---0-3-0---0---|
E-3---3-------3---3-|
            
Submit corrections

↑ Back to top | Tablatures and chords for acoustic guitar and electric guitar, ukulele, drums are parodies/interpretations of the original songs. You may use it for private study, scholarship, research or language learning purposes only