» » »

Modest Mouse - People As Places As People Tabs

Artists:  A B C D E F G H I J K L M N O P Q R S T U V W X Y Z # 

People As Places As People Tabs

(ver. 1) Click to play this song!
Modest Mouse
 Rating:
4/5 (4 votes)


 People As Places As People lessons Tabs too difficult? Try these video lessons and learn fast
 
                


Guitar I - Isaac Brock
Guitar II - Johnny Marr


--

Guitar I - Isaac Brock


intro
e-----------------------------------------------|-------------------|
B-----------------------------------------------|--12--/14----------|
G--[9]--[9][9][9]--[9]-[9]-[9][9][9]--[9]--[9]--|-----------9--/11--|
D-----------------------------------------------|-------------------|
A-----------------------------------------------|-------------------|
E-----------------------------------------------|-------------------|
^^natural harmonics on 9th fret

e-----------------------------------------------|------------------|
B-----------------------------------------------|--12--/14--10--9--|
G--[9]--[9][9][9]--[9]-[9]-[9][9][9]--[9]--[9]--|------------------|
D-----------------------------------------------|------------------|
A-----------------------------------------------|------------------|
E-----------------------------------------------|------------------|

e------------------------|-----------------------------|
B--9-9-10p9-9-10p9-7--/9-|--/12--9s7--7--9-------------|
G------------------------|------------------8/9--8--6--|
D------------------------|-----------------------------|
A------------------------|-----------------------------|
E------------------------|-----------------------------|


verse chord
e--------|
B--------|
G--13----|
D--------|
A--11----|
E--------|
*he strums and bends this chord*


fills
e---------|
B---------|
G--[9]----|
D---------|
A---------|
E---------|
bend with whammy bar/floyd rose


interlude/mini-solo
e------------------------------|------------------------------|
B------------------------------|------------------------------|
G------------------------------|------------------------------|
D--9--7-6-6-----------7--7-6-6-|--------7--7-6-7--9-7---------|
A------------7--/9--9----------|--/9--9---------------7-------|
E------------------------------|-------------------------9----|


bridge
e------------------------------|----------------------------------|
B------------------------------|----------------------------------|
G--9---9-9-9--9-9-9---9-9--11--|--8--8-9---9-9-9--9-9-9-9-9-11-11-|
D------------------------------|----------------------------------|
A--7---7-7-7--7-7-7---7-7--9---|--6--6-7---7-7-7--7-7-7-7-7-9--9--|
E------------------------------|----------------------------------|

e----------------------------|---------------------------|
B----------------------------|---------------------------|
G--8--8-6---6-6---6-6--6--11-|--13b-13b-13b-11--11-11-11-|
D----------------------------|---------------------------|
A--6--6-4---4-4---4-4--4--9--|--11b-11b-11b-9---9--9--9--|
E----------------------------|---------------------------|

e--------------------------------|--------------------------------|
B--------------------------------|--------------------------------|
G--6-4-4-/9--6--4--4-4-4-4-4-4-4-|--6-4-4-9--6--4--4-4-4444-4-4-4-|
D--------------------------------|--------------------------------|
A--4-2-2-/7--4--2--2-2-2-2-2-2-2-|--4-2-2-7--4--2--2-2-2222-2-2-2-|
E--------------------------------|--------------------------------|


--

Guitar II - Johnny Marr


intro (palm-muted)
e----------------------|-----------------------|
B----------------------|-----------------------|
G-------------9--------|-----------------------|
D-------11-------11-9--|-------9-9h11--11-11-9-|
A----11----11----------|----11-----------------|
E--9-------------------|--9--------9-----------|

e----------------------|-----------------------|
B----------------------|-----------------------|
G-------------9--------|-----------------------|
D-------11-------11-9--|-------9---------------|
A----11----11----------|----11----12--11-9-----|
E--9-------------------|--9----------------12--|

e----------------------|-----------------------|
B----------------------|-----------------------|
G-------------9--------|-----------------------|
D-------11-------11-9--|-------9-9h11--11-11-9-|
A----11----11----------|----11-----------------|
E--9-------------------|--9--------9-----------|

e-------------------|------------------|
B-------------------|------------------|
G-------------------|------------------|
D-------------------|------------------|
A------9----9--/11--|--------7--7-6h7--|
E--7-7---7----------|--5-5-5-----------|


verse riff
e----------------------|-----------------------|
B----------------------|-----------------------|
G-------------9b-------|-----------------------|
D-------11--------9-11-|-------9-9h11--11-11-9-|
A----11----11----------|----11-----------------|
E--9-------------------|--9--------------------|

e----------------------|-----------------------|
B----------------------|-----------------------|
G-------------9--------|-----------------------|
D-------11-------9-11--|-------9---------------|
A----11----11----------|----11----12--11-9-----|
E--9-------------------|--9----------------12--|


chorus
e-------------------|------------------|
B-------------------|------------------|
G-------------------|------------------|
D-------------------|------------------|
A------9----9--/11--|--------7--7-6h7--|
E--7-7---7----------|--5-5-5-----------|
"Cause you're the places..."


interlude/mini-solo
e-------|-------|-------|-------|
B-------|-------|-------|-------|
G--9----|-------|-------|-------|
D-------|--9----|-------|-------|
A-------|-------|--9----|-------|
E-------|-------|-------|--9----|
trem. pick these notes^^


bridge
e----------------------------------|----------------------------------|
B----------------------------------|----------------------------------|
G----------------------------------|--4-4-4-4-4-4-4-4-4-4-4-4-4-4-4-4-|
D--2-2-2-2-2-2-2-2-2-2-2-2-2-2-2-2-|--4-4-4-4-4-4-4-4-4-4-4-4-4-4-4-4-|
A--2-2-2-2-2-2-2-2-2-2-2-2-2-2-2-2-|--2-2-2-2-2-2-2-2-2-2-2-2-2-2-2-2-|
E--0-0-0-0-0-0-0-0-0-0-0-0-0-0-0-0-|----------------------------------|

e----------------------------------|----------------------------------|
B----------------------------------|----------------------------------|
G--6-6-6-6-6-6-6-6-6-6-6-6-6-6-6-6-|----------------------------------|
D--6-6-6-6-6-6-6-6-6-6-6-6-6-6-6-6-|--7-7-7-7--7-7-7--9-9-9-9--9-9-9--|
A--4-4-4-4-4-4-4-4-4-4-4-4-4-4-4-4-|--7-7-7-7--7-7-7--9-9-9-9--9-9-9--|
E----------------------------------|--5-5-5-5--5-5-5--7-7-7-7--7-7-7--|

e----------------------------------|----------------------------------|
B----------------------------------|----------------------------------|
G----------------------------------|----------------------------------|
D--7-7-7-7--7-7-7--9-9-9-9--9-9-9--|--7-7-7-7--7-7-7--9-9-9-9--9-9-9--|
A--7-7-7-7--7-7-7--9-9-9-9--9-9-9--|--7-7-7-7--7-7-7--9-9-9-9--9-9-9--|
E--5-5-5-5--5-5-5--7-7-7-7--7-7-7--|--5-5-5-5--5-5-5--7-7-7-7--7-7-7--|


--

(repeat all necessary riffs with minor variations)
            
Submit corrections



        People As Places As People lessons Hard to play? Try these video lessons and learn fast People As Places As People lessons
        
↑ Back to top | Tablatures and chords for acoustic guitar and electric guitar, ukulele, drums are parodies/interpretations of the original songs. You may use it for private study, scholarship, research or language learning purposes only