» » »

Modest Mouse - Lounge Bass

Artists:  A B C D E F G H I J K L M N O P Q R S T U V W X Y Z # 

Lounge Bass

(ver. 1) Click to play this song!
Modest Mouse
 Rating:
4/5 (4 votes)


 Lounge lessons Tabs too difficult? Try these video lessons and learn fast
 
                I wanted to make a tab for the Album Version. I've found many tabs on the more popular
which are very accurate. This version is completely different. The way to tell the two
is that the other version from "The Lonesome Crowded West" is called Lounge(Closing 
The version I have tabbed out is from the album "This is a Long Drive for Someone with
to Think About"

Intro and 1st verse.
G------------------------------------------------------------------|
D------------------------------------------------------------------|
A--16/13-12---9-10-12----------------------------------------------| x 16
E------------------------------------------------------------------|

Chorus (the time is very wierd. listen to the song and you'll get it)

G------------------------------------------------------------------|
D------------------------------------------------------------------|
A--12-13-12--------------------------------------------------------|
E------------------------------------------------------------------|

Verse 2

G------------------------------------------------------------------|
D------------------------------------------------------------------|
A--16/13-12---9-10-12----------------------------------------------| x 16
E------------------------------------------------------------------|

G------------------------------------------------------------------|
D------------------------------------------------------------------|
A--5/16------------------------------------------------------------| x 16
E------------------------------------------------------------------|

Instrumental Break

G------------14-14-14--------------14-14-14--------------------------|
D---------------------15--------------------12-----------------------|
A---13-13-13--------------13-13-13-----------------------------------|
E--------------------------------------------------------------------|
            
Submit corrections



        Lounge lessons Hard to play? Try these video lessons and learn fast Lounge lessons
        
↑ Back to top | Tablatures and chords for acoustic guitar and electric guitar, ukulele, drums are parodies/interpretations of the original songs. You may use it for private study, scholarship, research or language learning purposes only