Home » M » Modest Mouse »

Modest Mouse - Dramamine Ukulele

Artists:  A B C D E F G H I J K L M N O P Q R S T U V W X Y Z # 

Dramamine Ukulele

(ver. 1) Click to play this song!
Modest Mouse
[Intro]

A|--------------------------------------------------------------------------------------|
E|----3----------2---------------------2------------------------------------------------|
C|-4-----4----2-----2---0---4---0---2----2----------------------------------------------|
G|--------------------------------------------------------------------------------------|


[Verse 1]
    Em          D          Am
Travelling, swallowing Dramamine
    Em              D             Am
Feeling spaced, breathing out Listerine
   Em               D              Am
I'd said what I'd said, that I'd tell ya
       Em         D                Am
And that you'd killed the better part of me
 Em                 D              Am
If you could just milk it for everything
 Em                  D             Am
I've said what I'd said, and you know what I mean
 Em          D                Am
But I still can't focus on anything
Em               D                Am
We kiss on the mouth, but still cough down our sleeves

A|--------------------------------------------------------------------------------------|
E|----3----------2---------------------2------------------------------------------------|
C|-4-----4----2-----2---0---4---0---2----2----------------------------------------------|
G|--------------------------------------------------------------------------------------|


[Verse 2]
    Em          D         Am
Travelling, swallowing Dramamine
  Em           D                 Am
Look at your face like you're killed in a dream
    Em                  D           Am
And you think you've figured out everything
Em         D           Am
I think I know my geography pretty damn well
 Em                D                 Am
You say what you need so you'll get more
   Em               D              Am
If you could just milk it for everything
 Em                D                         Am
I've said what I said, and you know what I mean
 Em                 D         Am
But I still can't focus on anything


Em D Am
            
Submit corrections

↑ Back to top | Tablatures and chords for acoustic guitar and electric guitar, ukulele, drums are parodies/interpretations of the original songs. You may use it for private study, scholarship, research or language learning purposes only