» » »

Missy Higgins - Steer Tabs

Artists:  A B C D E F G H I J K L M N O P Q R S T U V W X Y Z # 

Steer Tabs

(ver. 1) Click to play this song!
Missy Higgins
 Rating:
4.4/5 (5 votes)

 Steer lessons Tabs too difficult? Try these video lessons and learn fast
 
                [Intro]
       E      E7       A        B
e|-----0-------0-------0---/----0----|
B|-----0-------0-------0---/----0----|  (x2)
G|-----9-------8-------6---/----8----|
D|-----9-------9-------7---/----9----|
A|-----7-------7-------7---/----9----|
E|-----x-------x-------x---/----x----|

[Verse]
       E      E7       A        B
e|-----0-------0-------0---/----0----|
B|-----0-------0-------0---/----0----|  (x3)
G|-----9-------8-------6---/----8----|
D|-----9-------9-------7---/----9----|
A|-----7-------7-------7---/----9----|
E|-----x-------x-------x---/----x----|

       E      E7       A        A
e|-----0-------0-------0--------0----|
B|-----0-------0-------0--------0----|  
G|-----9-------8-------6--------6----|
D|-----9-------9-------7--------7----|
A|-----7-------7-------7--------7----|
E|-----x-------x-------x--------x----|

E       E7               A             B
Feel it falling off like clothing
E        E7              A             B
Taste it rolling on your tongue
E       E7               A             B
See the lights above you glowing
        E            E7             A        A       
Oh, and breathe them deep into your lungs

[Pre-chorus]
       B       A       B        A
e|-----0-------0-------0--------0----|
B|-----0-------0-------0--------0----|  
G|-----8-------6-------8--------6----|
D|-----9-------7-------9--------7----|
A|-----9-------7-------9--------7----|
E|-----x-------x-------x--------x----|

B                        A 
   It was always simple,    not hidden hard
            B
You've been pulling at the strings
               
Playing puppeteer for kings
           A
And you've   had enough

[Chorus]
       E       B       A        B
e|-----0-------0-------0---/----0----|
B|-----0-------4-------2---/----4----| 
G|-----1-------4-------2---/----4----|
D|-----2-------4-------2---/----4----|
A|-----2-------x-------0---/----x----|
E|-----x-------x-------0---/----x----|

      C#m      B       A       A2      E
e|-----4-------0-------0-------0-------0-|
B|-----5-------4-------2-------0-------0-| 
G|-----6-------4-------2-------2-------9-|
D|-----6-------4-------2-------2-------9-|
A|-----4-------x-------0-------x-------7-|
E|-----x-------x-------0-------x-------x-|

(A)     E           B
But the search ends here
          A                            B
Where the night is totally clear
         C#m      B 
And your heart is fierce
           A
So now you finally know
         A2
That you control where you go
        E
You can steer

[Instrumental]
       E      E7       A        B
e|-----0-------0-------0---/----0----|
B|-----0-------0-------0---/----0----|  
G|-----9-------8-------6---/----8----|
D|-----9-------9-------7---/----9----|
A|-----7-------7-------7---/----9----|
E|-----x-------x-------x---/----x----|

[Verse 2]
       E      E7       A        B
e|-----0-------0-------0---/----0----|
B|-----0-------0-------0---/----0----|  (x3)
G|-----9-------8-------6---/----8----|
D|-----9-------9-------7---/----9----|
A|-----7-------7-------7---/----9----|
E|-----x-------x-------x---/----x----|

       E      E7       A        A
e|-----0-------0-------0--------0----|
B|-----0-------0-------0--------0----|  
G|-----9-------8-------6--------6----|
D|-----9-------9-------7--------7----|
A|-----7-------7-------7--------7----|
E|-----x-------x-------x--------x----|

   E         E7             A             B
So hold this feeling like a newborn
   E         E7                 A             B
Of freedom surging through your veins
E        E7          A             B
You have opened up a new door
   E            E7            A        A       
So bring on the wind fire and rain

[Pre-chorus]
       B       A       B        A
e|-----0-------0-------0--------0----|
B|-----0-------0-------0--------0----|  
G|-----8-------6-------8--------6----|
D|-----9-------7-------9--------7----|
A|-----9-------7-------9--------7----|
E|-----x-------x-------x--------x----|

B                        A 
   It was always simple,    not hidden hard
            B
You've been played at a game
               
Called remembering your name
        A
And you   stuffed it up

[Chorus]
       E       B       A        B
e|-----0-------0-------0---/----0----|
B|-----0-------4-------2---/----4----| 
G|-----1-------4-------2---/----4----|
D|-----2-------4-------2---/----4----|
A|-----2-------x-------0---/----x----|
E|-----x-------x-------0---/----x----|

      C#m      B       A       A2    E
e|-----4-------0-------0-------0-----0-|
B|-----5-------4-------2-------0-----0-| 
G|-----6-------4-------2-------2-----9-|
D|-----6-------4-------2-------2-----9-|
A|-----4-------x-------0-------x-----7-|
E|-----x-------x-------0-------x-----x-|

(A)     E           B
But the search ends here
          A                            B
Where the night is totally clear
         C#m      B 
And your heart is fierce
           A
So now you finally know
         A2
That you control where you go
        E      B
You can steer, oh
           A
So now you finally know
         A2
That you control where you go
         
You can steer

[Bridge]
       B       C#      A2       
e|-----0-------0-------0-----------|     - arpeggio A, G and D strings for B and C#, and A(or D), B and G for 
B|-----0-------0-------0-----------|       A2 chord.
G|-----4-------6-------2-----------|
D|-----4-------6-------2-----------|
A|-----2-------4-------0-----------|
E|-----x-------x-------0-----------|

Bm                    C#m           A
   'cause you've been listening for answers
            Bm               C#m                  A
Oh, but the city screams and all your dreams go unheard

[Instrumental]
       E       E7       
e|-----0-------0--|
B|-----0-------0--|  
G|-----9-------8--|
D|-----9-------9--|
A|-----7-------7--|
E|-----x-------x--|

[Chorus]
       E       B       A        B
e|-----0-------0-------0---/----0----|
B|-----0-------4-------2---/----4----| 
G|-----1-------4-------2---/----4----|
D|-----2-------4-------2---/----4----|
A|-----2-------x-------0---/----x----|
E|-----x-------x-------0---/----x----|

      C#m      B       A       A2    E
e|-----4-------0-------0-------0-----0-|
B|-----5-------4-------2-------0-----0-| 
G|-----6-------4-------2-------2-----9-|
D|-----6-------4-------2-------2-----9-|
A|-----4-------x-------0-------x-----7-|
E|-----x-------x-------0-------x-----x-|

(A)     E           B
But the search ends here
          A                            B
Where the night is totally clear
         C#m      B 
And your heart is fierce
           A
So now you finally know
         A2
That you control where you go
        E      B
You can steer, oh
          A                                        E    B
Yeah, get out of the box and step into the clear,      oh
               A                    
'cause now you finally know you can steer

[Outro]
       E      E7       A        B
e|-----0-------0-------0---/----0----|
B|-----0-------0-------0---/----0----|   end on E
G|-----9-------8-------6---/----8----|
D|-----9-------9-------7---/----9----|
A|-----7-------7-------7---/----9----|
E|-----x-------x-------x---/----x----|            
Submit corrections


        Steer lessons Hard to play? Try these video lessons and learn fast Steer lessons
        
↑ Back to top | Tablatures and chords for acoustic guitar and electric guitar, ukulele, drums are parodies/interpretations of the original songs. You may use it for private study, scholarship, research or language learning purposes only