» » »

Mission - Love Me To Death Tabs

Artists:  A B C D E F G H I J K L M N O P Q R S T U V W X Y Z # 

Love Me To Death Tabs

(ver. 1) Click to play this song!
Mission
 Rating:
4.3/5 (16 votes)

 Love Me To Death lessons Tabs too difficult? Try these video lessons and learn fast
 
                e|-------------------0h2p0-------------------|
B|-----------3-------------3-------3---------|
G|------0-------0------------0---------------|
D|-------------------------------------------|
A|--0h3---3------3--------------3------------|
E|-------------------------------------------|

e|-------------------0h2p0-------------------0-----------------------------------|
B|-----------3-------------3-----------------0-------------3p0-------------------|
G|------0-------0-----------0--2/4\2---------0--2h4--4--4-------2p0---0----------|
D|------------------------------------0h2----2----------------------4----0h2-----|
A|--0h3---3------3---------------------------2-----------------------------------|
E|----------------------------------------0--0-------------------------------0---|

e|--0-------------------------------------0h2p0------------------|
B|--0------------------------------3------------3------5---------|
G|--0-------0-----------------0-------0-----------0--------------|
D|--2--2/4-----4\2p0---------------------------------------------|
A|--2-----------------0--0h3----3------3-------------3-----------|
E|--0------------------------------------------------------------|

e|-------------------0h2p0-------------------0-----------------------------------|
B|-----------3-------------3-----------------0-------------3p0-------------------|
G|------0-------0-----------0--2/4\2---------0--2h4--4--4-------2p0---0----------|
D|------------------------------------0h2----2----------------------4----0h2-----|
A|--0h3---3------3---------------------------2-----------------------------------|
E|----------------------------------------0--0-------------------------------0---|

e|--0---------------------------------------------2---------------------------3p0-----------|
B|--0---------------------------2p0----3p0----5-----5-----------1-----0h1-------------1-----|
G|--0-------0---------------4-------------------------4--0-0h2-----2-------2-------2-----2--|
D|--2--2/4-----4\2p0----4-----4------4------4---4-------------------------------------------|
A|--2----------------0----------------------------------------------------------------------|
E|--0---------------------------------------------------------------------------------------|

e|--------------0-------------------------------------0-------3---------5-----|
B|--------------0--3--3h5--5-----3p0------------------0-------1---------3-----|
G|--------------0-------------4-------4b5p2p0---------0-------0--------(0)----|
D|--------------2-------------------------------------2--0h2--2--2-/-4--4-----|
A|--3--2--------2-----------------------------0h2-----2-------3--3-/-5--5-----|
E|--------3--0--0----------------------------------0--0-----------------------|

e|------3-------------------------3-----3-/-5-----5--------------------------|
B|------1---------(1)--(1)--------1-----1-/-3-----3--------------------------|
G|------0----------0----0h2p0-----0----(0)-------(0)-------------------------|
D|--2---2---2-0-2--------------2-----2--2-/-4-----4--4h5p4--4p0--0-----0--2--|
A|--------------------------------------3-/-5--5--------------------0--------|
E|---------------------------------------------------------------------------| 
  
e|------3-------------------------3-----3-/-5-----5--------------------------|
B|------1---------(1)--(1)--------1-----1-/-3-----3--------------------------|
G|------0----------0----0h2p0-----0----(0)-------(0)-------------------------|
D|------2---2-0-2--------------2-----2--2-/-4-----4--4h5p4--4p0--0-----0--2--|
A|--0-----------------------------------3-/-5--5--------------------0--------|
E|---------------------------------------------------------------------------| 
                                                        strumming chords
e|------3-------------------------3-----3-/-5-----5------7----5----3----2---3--|
B|------1---------(1)--(1)--------1-----1-/-3-----3------5----3----1----3---0--|
G|------0----------0----0h2p0-----0----(0)-------(0)----(0)--(0)---0----2---0--|
D|------2---2-0-2--------------2-----2--2-/-4-----4------6----4----2----0---2--|
A|--0-----------------------------------3-/-5--5---------7----5----3--------2--|
E|--------------------------------------------------------------------------0--| 
            
Submit corrections


        Love Me To Death lessons Hard to play? Try these video lessons and learn fast Love Me To Death lessons
        
↑ Back to top | Tablatures and chords for acoustic guitar and electric guitar, ukulele, drums are parodies/interpretations of the original songs. You may use it for private study, scholarship, research or language learning purposes only