Home » M » Mission »

Mission - Garden Of Delight Tabs

Artists:  A B C D E F G H I J K L M N O P Q R S T U V W X Y Z # 

Garden Of Delight Tabs

(ver. 1) Click to play this song!
Mission
 Rating:
4/5 (4 votes)
                The Mission
Garden of Delight
The First Chapter


I'm basing this on some live recordings and educated guesses.  I haven't worked out the
chords but it's more or less Dm Pentatonic with the occasional flat 1st (Dm Pentachord). 
 The chorus goes back and forth from F to Dm.  Feel free to e-mail me 

Tuning: Standard (E A D G B e)

MAIN RIFF                         Repeat
e|-------------------------------------||
B|------3-------3-------3-------3-----o||
G|----2---2---2---2-0h2---0---0---0----||
D|--0-------0---------------3----------||
A|------------------------------------o||
E|-------------------------------------||


MAIN RIFF (Verse)                 Repeat
e|--------------------------1----------||
B|------3-------3-------3-------3-----o||
G|----2---2---2---2-0h2---0-------0----||
D|--0-------0--------------------------||
A|------------------------------------o||
E|-------------------------------------||


ACCOMPANIMENT
e|--17~-------------17~------------------------||
B|------17~-15~---------17~-17b18r17-17~-15~--o||
G|---------------------------------------------||
D|---------------------------------------------||
A|--------------------------------------------o||
E|---------------------------------------------||


VERSE RHYTHM
e|------------------------------------------------------------||
B|------3---3-1----------1---1------------3---3-1------------o||
G|------2---2-0----------0---0-2----------2---2-0-------------||
D|--0-0-0-0-0-0----0-0-0-0-0-0-2----0-0-0-0-0-0-0----/3~-2~---||
A|-----------------------------0-----------------------------o||
E|------------------------------------------------------------||
    m m   m        m m m   m        m m m   m

CHORUS              (Not authentic, but it sounds good)
e|--1~----1~----1~---5--3--1-0---------||
B|--1~----3~----1~---6--5--3-1---------||
G|--2~----2~----2~---5--4--2-0---------||
D|--3~----0~----3~---0--0--0-2---------||
A|-------------------------------------||
E|-------------------------------------||


BRIDGE A                                   Repeat x3
e|----------------------------------------------||
B|---------------------------------------------o||
G|------10---9h10p9---12~-----10---9h10p9-7~----||
D|--0------0--------0-------0----0--------------||
A|---------------------------------------------o||
E|----------------------------------------------||


BRIDGE B
e|--------------------------------------10~---||
B|----------------------------10---13---------||
G|------10---9h10p9---12~---------------------||
D|--0------0--------0-------0----0----0-------||
A|--------------------------------------------||
E|--------------------------------------------||


OUTRO                                       Repeat x3
e|-----------------------------------------------||-------||
B|----------------------------------------------o||-------||
G|--14--------------------14---------------------||-------||
D|--------15-14-12~-------------15-14-12~--------||-------||
A|-----12------------12~-----12------------13~--o||--12~--||
E|-----------------------------------------------||-------||


The lyrics are all online, and mostly correct.  Have fun.


Key:

( )= Ghost note
 h = Hammer-on
 p = Pull-off
 b = Bend up
 r = Release
 ~ = Vibrato
 / = Slide up
            
Submit corrections

↑ Back to top | Tablatures and chords for acoustic guitar and electric guitar, ukulele, drums are parodies/interpretations of the original songs. You may use it for private study, scholarship, research or language learning purposes only