» » »

Mischief Brew - The Gypsy The Punk And The Fool A Tale Acoustic Tabs

Artists:  A B C D E F G H I J K L M N O P Q R S T U V W X Y Z # 

The Gypsy The Punk And The Fool A Tale Acoustic Tabs

(ver. 1) Click to play this song!
Mischief Brew
 Rating:
4.3/5 (22 votes)

 The Gypsy The Punk And The Fool A Tale Acoustic lessons Tabs too difficult? Try these video lessons and learn fast
 
                [Intro]
    Gm                    Cm                                   C#m/C/Gm
e|--3-3-3-3-3-3-3-3-3-3-3-3-3---3-3-3---3-3-3---3-3-3-3-3-3-3-3-4-3-3---3---3----------|
B|--3-3-3-3-3-3-3-3-3-3-3-4-4---4-4-4---4-4-4---4-4-4-4-4-4-4-4-5-4-3---3---3----------|
G|--3-3-3-3-3-3-3-3-3-3-3-5-5---5-5-5---5-5-5---5-5-5-5-5-5-5-5-6-5-3---3---3----------|
D|--5-5-5-5-5-5-5-5-5-5-5-5-5-x-5-5-5-x-5-5-5-x-5-5-5-5-5-5-5-5-6-5-5---5---5----------|
A|--5-5-5-5-5-5-5-5-5-5-5-3-3-x-3-3-3-x-3-3-3-x-3-3-3-3-3-3-3-3-4-3-5-x-5-x-5-x--------|
E|--3-3-3-3-3-3-3-3-3-3-3-------------------------------------------3-x-3-x-3-x-5-6-5--|

    Gm        Bm          Cm          C#m         D                   Gm         Fm/Gm
e|--3-3-3-3-3---------------------------------------------------------3---3---3---1-3--|
B|--3-3-3-3-3-3-3-3-3-3-3-4-4-4-4-4-4-5-5-5-5-5-5---------------------3---3---3---1-3--|
G|--3-3-3-3-3-4-4-4-4-4-4-5-5-5-5-5-5-6-6-6-6-6-6-7-7-7-7-7-7-7-7-7-7-3---3---3---1-3--|
D|--5-5-5-5-5-4-4-4-4-4-4-5-5-5-5-5-5-6-6-6-6-6-6-7-7-7-7-7-7-7-7-7-7-5---5---5---3-5--|
A|--5-5-5-5-5-2-2-2-2-2-2-3-3-3-3-3-3-4-4-4-4-4-4-5-5-5-5-5-5-5-5-5-5-5-x-5-x-5-x-3-5--|
E|--3-3-3-3-3---------------------------------------------------------3-x-3-x-3-x-1-3--|

   G                 A                 G        C           D           A              D           A
e|-----------------------------------------------------------------------------------------------------------|
B|-11----11----11----11----11----11----11----13-13/15-13-11-13----13----13----------------13-13/15-13-10/11--|
G|----12----12----12----12----12----12----12-------------------11----11----11----------11--------------------|
D|----------------------------------------------------------------------------12h13p13-----------------------|
A|-----------------------------------------------------------------------------------------------------------|
E|-----------------------------------------------------------------------------------------------------------|

    A            Bb         C              Dm
e|---------------------------------------------|
B|--5-5-5-5-5-5-6-6-6-6-6-6-8--8--8--8--8--10--|
G|--6-6-6-6-6-6-7-7-7-7-7-7-9--9--9--9--9--10--|
D|--7-7-7-7-7-7-8-8-8-8-8-8-10-10-10-10-10-12--|
A|---------------------------------------------|
E|---------------------------------------------|

    D5             C5 Bb A5        Bb A5 Bb            C5 Bb A5        Bb A5 G  A  A# C
e|---------------------------------------------------------------------------------------|
B|---------------------------------------------------------------------------------------|
G|--14-14-14-14-14-12-10-9-9-9-9-9-10-9-10-10-10-10-10-12-10-9-9-9-9-9-10-9--------------|
D|--12-12-12-12-12-10-8--7-7-7-7-7-8--7-8--8--8--8--8--10-8--7-7-7-7-7-8--7--------------|
A|---------------------------------------------------------------------------------------|
E|---------------------------------------------------------------------------3--5--6--8--|

   D5             C5 Bb A5        Bb A5 Bb            C5 Bb A5        Bb A5
e|---------------------------------------------------------------------------|
B|---------------------------------------------------------------------------|
G|--14-14-14-14-14-12-10-9-9-9-9-9-10-9-10-10-10-10-10-12-10-9-9-9-9-9-10-9--|
D|--12-12-12-12-12-10-8--7-7-7-7-7-8--7-8--8--8--8--8--10-8--7-7-7-7-7-8--7--|
A|---------------------------------------------------------------------------|
E|---------------------------------------------------------------------------|

   G5                 A                    Dm          Bbm            Am
e|-----------------------------------------5-5-5-5-5-5/13-13-13-13-13-12-12-12-12-12-12--|
B|--------------------5-5-5-5-5-5-5-5-5-5--6-6-6-6-6-6/14-14-14-14-14-13-13-13-13-13-13--|
G|-7-7-7-7-7-7-7-7-7--6-6-6-6-6-6-6-6-6-6--7-7-7-7-7-7/15-15-15-15-15-14-14-14-14-14-14--|
D|-5-5-5-5-5-5-5-5-5--7-7-7-7-7-7-7-7-7-7------------------------------------------------|
A|---------------------------------------------------------------------------------------|
E|---------------------------------------------------------------------------------------|

[Bass riff]
G|--------------------|
D|-2-1----------------|
A|-----3-2------------|
E|---------0h5-4-1-0--|

[Verse]
    A                A Dm Bb
e|----------------------5----|
B|--5-5---5-5---5-5---5-6-6--|
G|--6-6-x-6-6-x-6-6-x-6-7-7--|
D|--7-7-x-7-7-x-7-7-x-7---8--|
A|---------------------------|
E|---------------------------|
   Laid the sleepy children down........

   Bb     C Bb  A                A Dm Bb
e|----------------------------------5----|
B|-6-6----8-6---5-5---5-5---5-5---5-6-6--|
G|-7-7-x--9-7-x-6-6-x-6-6-x-6-6-x-6-7-7--|
D|-8-8-x-10-8-x-7-7-x-7-7-x-7-7-x-7---8--|
A|---------------------------------------|
E|---------------------------------------|
   Ambers turn the night to smoke.....

   Bb          C       A                A Dm Bb A     G A Bb A
e|-----------------------------------------5---------------------------------------------------|
B|-5-----------8-------5-5---5-5---5-5---5-6-6---5-5--3-5-6-5-5h6p5-3h5p3-2h3p3-0h2p0----------|
G|-6-----------9-------6-6-x-6-6-x-6-6-x-6-7-7-x-6-6--4-6-7-6-------------------------0-2-3-2--|
D|-8----------10-------7-7-x-7-7-x-7-7-x-7---8-x-7-7--5-7-8-7----------------------------------|
A|---------------------------------------------------------------------------------------------|
E|---------------------------------------------------------------------------------------------|
   Sing of no surrender

   Bb                      C
e|--------------------------------|
B|-5-----------------------8------|
G|-6-----------------------9------|
D|-8----------------------10------|
A|--------------------------------|
E|--------------------------------|
   You'll hang before you surrender

[Bridge]
e|---------------------------------------------------------------------------|
B|---------------------------------------------------------------------------|
G|-------------------------------------------------6-7-9-9-9/11/9-7-6-7------|
D|----------------------------------7-7-7-7-7-7--7----------------------5----|
A|---------------------------------------------------------------------------|
E|-0-0-6-0-0-6-0-6--0-0-6-0-0-6-0-6------------------------------------------|

e|---------------------------------------------------------------------------|
B|---------------------------------------------------------------------------|
G|---------------------------------------------------------------------------|
D|---------------------------------------------------------------------------|
A|---------------------------------------------------------------------------|
E|-0-0-6-0-0-6-0-6--0-0-6-0-0-6-0-6--0-0-6-0-0-6-0-6--0-0-6-0-0-6-0-6--------|

[Verse 3]
 Dm          Bb                  A
e|--5---------------------------------------|
B|--6-----------6-------------------5-------|
G|--7-----------7-------------------6-------|
D|--------------8-------------------7-------|
A|------------------------------------------|
E|------------------------------------------|
   How I marvel when Ivy Leagues is shed....

    Dm                      Bb               C                A
e|--5----------------------------------------------------------------------|
B|--6-----------------------6----------------8--8--8--8--8--8-5-5-5-5-5-5--|
G|--7-----------------------7----------------9--9--9--9--9--9-6-6-6-6-6-6--|
D|--------------------------8---------------10-10-10-10-10-10-7-7-7-7-7-7--|
A|-------------------------------------------------------------------------|
E|-------------------------------------------------------------------------|
   To tend the wheat that's soon to be your bread....

[Ending]
   Gm                                         Gm                                           D
e|-10-10-10-10-10-10-10-10-10-10-10-10-10--------------------------------------------------------|
B|-11-11-11-11-11-11-11-11-11-11-11-11-11--------------------------------------------------------|
G|-12-12-12-12-12-12-12-12-12-12-12-12-12--------------------------------------------------------|
D|----------------------------------------------------5--5---7-8^-------------7-5-4---5-7--------|
A|------------------------------------------------------------------------------------------5----|
E|-----------------------------------------------------------------------------------------------|
  If you choose rebellion over sweet content  Can you really sing the rogue's lament again? No

  Gm                    Cm                                   C#m/C/Gm
e|--3-3-3-3-3-3-3-3-3-3-3-3-3---3-3-3---3-3-3---3-3-3-3-3-3-3-3-4-3-3---3---3----------|
B|--3-3-3-3-3-3-3-3-3-3-3-4-4---4-4-4---4-4-4---4-4-4-4-4-4-4-4-5-4-3---3---3----------|
G|--3-3-3-3-3-3-3-3-3-3-3-5-5---5-5-5---5-5-5---5-5-5-5-5-5-5-5-6-5-3---3---3----------|
D|--5-5-5-5-5-5-5-5-5-5-5-5-5-x-5-5-5-x-5-5-5-x-5-5-5-5-5-5-5-5-6-5-5---5---5----------|
A|--5-5-5-5-5-5-5-5-5-5-5-3-3-x-3-3-3-x-3-3-3-x-3-3-3-3-3-3-3-3-4-3-5-x-5-x-5-x--------|
E|--3-3-3-3-3-3-3-3-3-3-3-------------------------------------------3-x-3-x-3-x-5-6-5--|
    I'll sing the rogue's lament never again     I'll sing the rogue's lament never again

    Gm        Bm          Cm          C#m         D                   Gm         Fm/Gm
e|--3-3-3-3-3---------------------------------------------------------3---3---3---1-3--|
B|--3-3-3-3-3-3-3-3-3-3-3-4-4-4-4-4-4-5-5-5-5-5-5---------------------3---3---3---1-3--|
G|--3-3-3-3-3-4-4-4-4-4-4-5-5-5-5-5-5-6-6-6-6-6-6-7-7-7-7-7-7-7-7-7-7-3---3---3---1-3--|
D|--5-5-5-5-5-4-4-4-4-4-4-5-5-5-5-5-5-6-6-6-6-6-6-7-7-7-7-7-7-7-7-7-7-5---5---5---3-5--|
A|--5-5-5-5-5-2-2-2-2-2-2-3-3-3-3-3-3-4-4-4-4-4-4-5-5-5-5-5-5-5-5-5-5-5-x-5-x-5-x-3-5--|
E|--3-3-3-3-3---------------------------------------------------------3-x-3-x-3-x-1-3--|
    When you roll your own bed    Always be out of lead...

[Solo]
e|-------------------------------------------------------------------------|
B|----------------------------------------------7--------------------------|
G|--7-7-7-7-7-7-7-7-7-5-----------7-7-7-7-7-7-8---8-7-8-7h8p7h8p7---7-8-5--|
D|----------------------8-7------------------------------------------------|
A|-----------------------------5-------------------------------------------|
E|-------------------------------------------------------------------------|

e|---------------------------------------------------------------------------------------3--|
B|-----7-8-10-8-7--7hp8---7--------5---5-7^----------------------------------------------3--|
G|-7-8------------------8---8-7--7---7------7--7-5---5--------------------8-7-5-7--------3--|
D|-------------------------------------------------8---8-7-8-7-5-7-5-4--5---------7-8-7--5--|
A|---------------------------------------------------------------------------------------5--|
E|---------------------------------------------------------------------------------------3--|

            
Submit corrections


        The Gypsy The Punk And The Fool A Tale Acoustic lessons Hard to play? Try these video lessons and learn fast The Gypsy The Punk And The Fool A Tale Acoustic lessons
        
↑ Back to top | Tablatures and chords for acoustic guitar and electric guitar, ukulele, drums are parodies/interpretations of the original songs. You may use it for private study, scholarship, research or language learning purposes only