Home » M » Mischief Brew »

Mischief Brew - Danger Falling Pianos Tabs

Artists:  A B C D E F G H I J K L M N O P Q R S T U V W X Y Z # 

Danger Falling Pianos Tabs

(ver. 1) Click to play this song!
Mischief Brew
[Intro]

e|--x--x--10-x-----x-----10--10-x--------x--10--x-------x------x--------x-----------------------------|
B|--x--x--11-x--11-x-11--11--11-x-13-13--x--11--x---11--x--11--x--14-14-x--13-------------------------|
G|--x--x--12-x--9--x--9--10--10-x-11-11--x--12--x---9---x--9---x--12-12-x--11-------------------------|
D|--x--x--12-x--11-x-11--12--12-x-12-12--x--12--x---11--x--11--x--13-13-x--12-------------------------|
A|--x--x--10-x--10-x-10--10--10-x--------x--10--x---10--x--10--x--------x-----------------------------|
E|--x--x-----x-----x------------x--------x------x-------x------x--------x-----------------------------|

e|-10-x---------10-10-x-------x----------x-------x--10-10-x-------x-----------------------------------|
B|-11-x--11-11--11-11-x-13-13-x-14-14-14-x-13-13-x--11-11-x-------x-----------------------------------|
G|-12-x--9--9---10-10-x-11-11-x-12-12-12-x-11-11-x--10-10-x---5-5-x-5---------------------------------|
D|-12-x--11-11--12-12-x-12-12-x-13-13-13-x-12-12-x--12-12-x---4-4-x-4---------------------------------|
A|-10-x--10-10--10-10-x-------x----------x-------x--10-10-x---5-5-x-5---------------------------------|
E|----x---------------x-------x----------x-------x--------x-------x-----------------------------------|


[Verse 1]

e|----x---x---x-----x-------x---x---x-----x-----x---------------------------------------------------|
B|----x---x---x-----x-------x---x---x-----x-----x---------------------------------------------------|
G|----x-3-x-3-x-----x-5-5---x-3-x-3-x-6-6-x-5-5-x-5-------------------------------------------------|
D|--5-x-2-x-2-x-5-5-x-4-4-5-x-2-x-2-x-5-5-x-4-4-x-4-------------------------------------------------| 2x
A|--5-x-4-x-4-x-5-5-x-5-5-5-x-4-x-4-x-6-6-x-5-5-x-5-------------------------------------------------|
E|--3-x---x---x-3-3-x-----3-x---x---x-----x-----x---------------------------------------------------|

I got a fence to lean against...
e|----x---x---x-----x-------x---x---x-----x-----x---------------------------------------------------|
B|----x---x---x-----x-------x---x---x-----x-----x---------------------------------------------------|
G|----x-3-x-3-x-----x-5-5---x-3-x-3-x-6-6-x-5-5-x-5-------------------------------------------------|
D|--5-x-2-x-2-x-5-5-x-4-4-5-x-2-x-2-x-5-5-x-4-4-x-4-------------------------------------------------| 2x
A|--5-x-4-x-4-x-5-5-x-5-5-5-x-4-x-4-x-6-6-x-5-5-x-5-------------------------------------------------|
E|--3-x---x---x-3-3-x-----3-x---x---x-----x-----x---------------------------------------------------|

I got a line I'm standin' behind...
e|----x---x---x-----x-----x-x-x-3-x-----x-----x-------x---x---x-----x-------x---x---x-----x-----x---|
B|----x---x---x-----x-----x-4-x-4-x-----x-----x-------x---x---x-----x-------x---x---x-----x-----x---|
G|----x-3-x-3-x-----x-5-5-x-0-x-5-x-----x-5-5-x-------x-3-x-3-x-----x-5-5---x-3-x-3-x-6-6-x-5-5-x-5-|
D|--5-x-2-x-2-x-5-5-x-4-4-x-x-x-5-x-5-5-x-4-4-x-----5-x-2-x-2-x-5-5-x-4-4-5-x-2-x-2-x-5-5-x-4-4-x-4-|
A|--5-x-4-x-4-x-5-5-x-5-5-x-6-x-3-x-5-5-x-5-5-x-----5-x-4-x-4-x-5-5-x-5-5-5-x-4-x-4-x-6-6-x-5-5-x-5-|
E|--3-x---x---x-3-3-x-----x---x-3-x-3-3-x-----x-----3-x---x---x-3-3-x-----3-x---x---x-----x-----x---|



[Chorus]

They say don't go where you aint been...
e|--3-3-3-3-3-----6-6-6-6-------------------------3-3-3-3-3-3----------------|
B|--4-4-4-4-4-----6-6-7-7-----7---7----7---7------3-3-3-3-3-3----------------|
G|--5-5-5-5-5-----7-7-6-6-----5---5----5---5------4-4-4-4-4-4----------------|
D|--5-5-5-5-5-5-5-8-8-8-8---0-----7--0-----7--5-5-5-5-5-5-5-5----------------|
A|--3-3-3-3-3-5-5-8-8-6-6-------0--------0----5-5-5-5-5-5-5-5----------------|
E|--3-3-3-3-3-3-3-6-6-------------------------3-3-3-3-3-3-3-3----------------|

 They say don't get caught down on...
e|--3-3-3-3-3-----------3-3-3-x-x-x------------------------------------------|
B|--4-4-4-4-4-----------4-4-4-4-4-x-7-7--------------------------------------|
G|--5-5-5-5-5---------5-5-5-5-0-0-x-5-5--------------------------------------|
D|--5-5-5-5-5---------4-5-5-5-x-x-x-7-7--------------------------------------|
A|--3-3-3-3-3-----1/3-5-3-3-3-6-6-x------------------------------------------|
E|--3-3-3-3-3-3-3-------3-3-3-----x------------------------------------------|

e|--x--10-x-----x-----10--10-x--------x--10--x-------x------x--------x-------|
B|--x--11-x--11-x-11--11--11-x-13-13--x--11--x---11--x--11--x--14-14-x--13---|
G|--x--12-x--9--x--9--10--10-x-11-11--x--12--x---9---x--9---x--12-12-x--11---|2x
D|--x--12-x--11-x-11--12--12-x-12-12--x--12--x---11--x--11--x--13-13-x--12---|
A|--x--10-x--10-x-10--10--10-x--------x--10--x---10--x--10--x--------x-------|
E|--x-----x-----x------------x--------x------x-------x------x--------x-------|


[Verse 2]

I got a gate stuck in the way...
e|----x---x---x-----x-------x---x---x-----x-----x---------------------------------------------------|
B|----x---x---x-----x-------x---x---x-----x-----x---------------------------------------------------|
G|----x-3-x-3-x-----x-5-5---x-3-x-3-x-6-6-x-5-5-x-5-------------------------------------------------|2x
D|--5-x-2-x-2-x-5-5-x-4-4-5-x-2-x-2-x-5-5-x-4-4-x-4-------------------------------------------------| 
A|--5-x-4-x-4-x-5-5-x-5-5-5-x-4-x-4-x-6-6-x-5-5-x-5-------------------------------------------------|
E|--3-x---x---x-3-3-x-----3-x---x---x-----x-----x---------------------------------------------------|

The travell guide says...
e|----x---x---x-----x-----x-x-x-3-x-----x-----x-------x---x---x-----x-------x---x---x-----x-----x---|
B|----x---x---x-----x-----x-4-x-4-x-----x-----x-------x---x---x-----x-------x---x---x-----x-----x---|
G|----x-3-x-3-x-----x-5-5-x-0-x-5-x-----x-5-5-x-------x-3-x-3-x-----x-5-5---x-3-x-3-x-6-6-x-5-5-x-5-|
D|--5-x-2-x-2-x-5-5-x-4-4-x-x-x-5-x-5-5-x-4-4-x-----5-x-2-x-2-x-5-5-x-4-4-5-x-2-x-2-x-5-5-x-4-4-x-4-|
A|--5-x-4-x-4-x-5-5-x-5-5-x-6-x-3-x-5-5-x-5-5-x-----5-x-4-x-4-x-5-5-x-5-5-5-x-4-x-4-x-6-6-x-5-5-x-5-|
E|--3-x---x---x-3-3-x-----x---x-3-x-3-3-x-----x-----3-x---x---x-3-3-x-----3-x---x---x-----x-----x---|


[Chorus]

Can't ya take me someplace...
e|--3-3-3-3-3-----6-6-6-6-------------------------3-3-3-3-3-3------------------|
B|--4-4-4-4-4-----6-6-7-7-----7---7----7---7------3-3-3-3-3-3------------------|
G|--5-5-5-5-5-----7-7-6-6-----5---5----5---5------4-4-4-4-4-4------------------|
D|--5-5-5-5-5-5-5-8-8-8-8---0-----7--0-----7--5-5-5-5-5-5-5-5------------------|
A|--3-3-3-3-3-5-5-8-8-6-6-------0--------0----5-5-5-5-5-5-5-5------------------|
E|--3-3-3-3-3-3-3-6-6-------------------------3-3-3-3-3-3-3-3------------------|

As I see rich kids...
e|--3-3-3-3-3-----6-6-6-6-3-3-3-x-x-x------------------------------------------|
B|--4-4-4-4-4-----6-6-7-7-4-4-4-4-4-x-7-7--------------------------------------|
G|--5-5-5-5-5-----7-7-x-x-5-5-5-0-0-x-5-5--------------------------------------|
D|--5-5-5-5-5-5-5-8-8-8-8-5-5-5-x-x-x-7-7--------------------------------------|
A|--3-3-3-3-3-5-5-8-8-6-6-3-3-3-6-6-x------------------------------------------|
E|--3-3-3-3-3-3-3-6-6-3-3-3-3-3-x-x-x------------------------------------------|


[Bridge]
And I'm hangin by a single thread...
e|--3-3-3-3-3-3-------1-0-3-3-3-3-3-3-------1-0-3-3-3-3-3-3------------------|
B|--0-0-0-0-0-0-2-2-2-1-1-0-0-0-0-0-0-2-2-2-1-1-0-0-0-0-0-0------------------|
G|--0-0-0-0-0-0-2-2-2-2-0-0-0-0-0-0-0-2-2-2-2-0-0-0-0-0-0-0------------------|
D|--0-0-0-0-0-0-2-2-2-3-2-0-0-0-0-0-0-2-2-2-3-2-0-0-0-0-0-0------------------|
A|--x-x-x-x-x-x-0-0-0-3-3-x-x-x-x-x-x-0-0-0-3-3-x-x-x-x-x-x------------------|
E|--3-3-3-3-3-3-------1---3-3-3-3-3-3-------1---3-3-3-3-3-3------------------|

Slap a sticker on it...
e|--0-0-0-0-0-x-0-0-0-3-3---x------------------------------------------------|
B|--0-0-0-1-1-x-1-1-1-5-5---x------------------------------------------------|
G|--0-0-0-2-2-x-0-0-0-5-5---x-2-2-2------------------------------------------|3x
D|--2-2-2-2-2-x-2-2-2-5-5-5-x-1-1-1------------------------------------------|
A|--2-2-2-0-0-x-3-3-3-3-3-5-x-2-2-2------------------------------------------|
E|--0-0-0-----x-----------3-x------------------------------------------------|
Whats behind your down crime rate...
e|--0-0-0-0-0-0-0-3-3-3-3----------------------------------------------------|
B|--0-0-0-1-1-1-1-5-5-0-0-----5-5--------------------------------------------|
G|--0-0-0-2-2-0-0-5-5-0-0-7-7-6-6--------------------------------------------|
D|--2-2-2-2-2-2-2-5-5-0-0-7-7-7-7--------------------------------------------|
A|--2-2-2-0-0-3-3-3-3-x-x-5-5------------------------------------------------|
E|--0-0-0-------------3-3----------------------------------------------------|

Away...
e|--x--10-x-----x-----10--10-x--------x--10--x-------x------x--------x-------|
B|--x--11-x--11-x-11--11--11-x-13-13--x--11--x---11--x--11--x--14-14-x--13---|
G|--x--12-x--9--x--9--10--10-x-11-11--x--12--x---9---x--9---x--12-12-x--11---|
D|--x--12-x--11-x-11--12--12-x-12-12--x--12--x---11--x--11--x--13-13-x--12---|
A|--x--10-x--10-x-10--10--10-x--------x--10--x---10--x--10--x--------x-------|
E|--x-----x-----x------------x--------x------x-------x------x--------x-------|

e|-x-10-x----x-----10-10-x-------x-10-x----x---------------------------------|
B|-x-11-x-11-x-11--11-11-x-13-13-x-11-x-11-x-11------------------------------|
G|-x-12-x-9--x-9---10-10-x-11-11-x-12-x-9--x-9--6-5--------------------------|
D|-x-12-x-11-x-11--12-12-x-12-12-x-12-x-11-x-11-5-4--------------------------|
A|-x-10-x-10-x-10--10-10-x-------x-10-x-10-x-10-6-5--------------------------|
E|-x----x----x-----------x-------x----x----x---------------------------------|

[Verse]
Hey!
e|----x---x---x-----x-------x---x---x-----x-----x---------------------------------------------------|
B|----x---x---x-----x-------x---x---x-----x-----x---------------------------------------------------|
G|----x-3-x-3-x-----x-5-5---x-3-x-3-x-6-6-x-5-5-x-5-------------------------------------------------|
D|--5-x-2-x-2-x-5-5-x-4-4-5-x-2-x-2-x-5-5-x-4-4-x-4-------------------------------------------------| 2x
A|--5-x-4-x-4-x-5-5-x-5-5-5-x-4-x-4-x-6-6-x-5-5-x-5-------------------------------------------------|
E|--3-x---x---x-3-3-x-----3-x---x---x-----x-----x---------------------------------------------------|

You got a gun beside your bed...
e|----x---x---x-----x-------x---x---x-----x-----x---------------------------------------------------|
B|----x---x---x-----x-------x---x---x-----x-----x---------------------------------------------------|
G|----x-3-x-3-x-----x-5-5---x-3-x-3-x-6-6-x-5-5-x-5-------------------------------------------------|
D|--5-x-2-x-2-x-5-5-x-4-4-5-x-2-x-2-x-5-5-x-4-4-x-4-------------------------------------------------| 2x
A|--5-x-4-x-4-x-5-5-x-5-5-5-x-4-x-4-x-6-6-x-5-5-x-5-------------------------------------------------|
E|--3-x---x---x-3-3-x-----3-x---x---x-----x-----x---------------------------------------------------|

And there you'll hide...
e|----x---x---x-----x-----x-x-x-3-x-----x-----x-------x---x---x-----x-------x---x---x-----x-----x---|
B|----x---x---x-----x-----x-4-x-4-x-----x-----x-------x---x---x-----x-------x---x---x-----x-----x---|
G|----x-3-x-3-x-----x-5-5-x-0-x-5-x-----x-5-5-x-------x-3-x-3-x-----x-5-5---x-3-x-3-x-6-6-x-5-5-x-5-|
D|--5-x-2-x-2-x-5-5-x-4-4-x-x-x-5-x-5-5-x-4-4-x-----5-x-2-x-2-x-5-5-x-4-4-5-x-2-x-2-x-5-5-x-4-4-x-4-|
A|--5-x-4-x-4-x-5-5-x-5-5-x-6-x-3-x-5-5-x-5-5-x-----5-x-4-x-4-x-5-5-x-5-5-5-x-4-x-4-x-6-6-x-5-5-x-5-|
E|--3-x---x---x-3-3-x-----x---x-3-x-3-3-x-----x-----3-x---x---x-3-3-x-----3-x---x---x-----x-----x---|


[Outro]
They say don't go...
e|--3-3-3-3-3-----6-6-6-6-------------------------3-3-3-3-3-3----------------|
B|--4-4-4-4-4-----6-6-7-7-----7---7----7---7------3-3-3-3-3-3----------------|
G|--5-5-5-5-5-----7-7-6-6-----5---5----5---5------4-4-4-4-4-4----------------|
D|--5-5-5-5-5-5-5-8-8-8-8---0-----7--0-----7--5-5-5-5-5-5-5-5----------------|
A|--3-3-3-3-3-5-5-8-8-6-6-------0--------0----5-5-5-5-5-5-5-5----------------|
E|--3-3-3-3-3-3-3-6-6-------------------------3-3-3-3-3-3-3-3----------------|

They say dont get caught down on...
e|--3-3-3-3-3-----6-6-5-5----------------------------------------------------|
B|--4-4-4-4-4-----6-6-6-6----------------------------------------------------|
G|--5-5-5-5-5-----7-7-7-7----------------------------------------------------|
D|--5-5-5-5-5-5-5-8-8-7-7----------------------------------------------------|
A|--3-3-3-3-3-5-5-8-8-5-5----------------------------------------------------|
E|--3-3-3-3-3-3-3-6-6-5-5----------------------------------------------------|

Gimme danger...
e|--3-3-3-x-x-----10-x----x----10-10-x---------------------------------------|
B|--4-4-4-4-4-7-7-11-x-11-x-11-11-11-x-13-13---------------------------------|
G|--5-5-5-0-0-5-5-12-x-9--x-9--10-10-x-11-11---------------------------------|2x
D|--5-5-5-x-x-7-7-12-x-11-x-11-12-12-x-12-12---------------------------------|
A|--3-3-3-6-6-----10-x-10-x-10-10-10-x---------------------------------------|
E|--3-3-3-x-x--------x----x----------x---------------------------------------|

e|--3-3-3-x-x-----3-8--6-6-3-----x---x---x-----x-----x----x---x---x-----x-------x---x---x-----x-----x---|
B|--4-4-4-4-4-7-7-0-9--7-7-4-----x---x---x-----x-----x----x---x---x-----x-------x---x---x-----x-----x---|
G|--5-5-5-0-0-5-5-0-10-6-6-5-5---x-3-x-3-x-----x-5-5-x----x-3-x-3-x-----x-5-5---x-3-x-3-x-6-6-x-5-5-x-5-|
D|--5-5-5-x-x-7-7-0-10-8-8-5-4-5-x-2-x-2-x-5-5-x-4-4-x--5-x-2-x-2-x-5-5-x-4-4-5-x-2-x-2-x-5-5-x-4-4-x-4-|
A|--3-3-3-6-6-----x-8--6-6-3-5-5-x-4-x-4-x-5-5-x-5-5-x--5-x-4-x-4-x-5-5-x-5-5-5-x-4-x-4-x-6-6-x-5-5-x-5-|
E|--3-3-3-x-x-----3--------3---3-x---x---x-3-3-x-----x--3-x---x---x-3-3-x-----3-x---x---x-----x-----x---|

e|----x---x---x-----x-------x---x---x-----x-----x------x---x---x-----x-------x---x---x------------------|
B|----x---x---x-----x-------x---x---x-----x-----x------x---x---x-----x-------x---x---x-14-13------------|
G|----x-3-x-3-x-----x-5-5---x-3-x-3-x-6-6-x-5-5-x-5----x-3-x-3-x-----x-5-5---x-3-x-3-x-12-11------------|
D|--5-x-2-x-2-x-5-5-x-4-4-5-x-2-x-2-x-5-5-x-4-4-x-4--5-x-2-x-2-x-5-5-x-4-4-5-x-2-x-2-x-13-12------------| 
A|--5-x-4-x-4-x-5-5-x-5-5-5-x-4-x-4-x-6-6-x-5-5-x-5--5-x-4-x-4-x-5-5-x-5-5-5-x-4-x-4-x------------------|
E|--3-x---x---x-3-3-x-----3-x---x---x-----x-----x----3-x---x---x-3-3-x-----3-x---x---x------------------|

e|--10-x-----x-----10--10-x--------x--10--x-------x------x--------x-------------------------------------|
B|--11-x--11-x-11--11--11-x-13-13--x--11--x---11--x--11--x--14-14-x--13---------------------------------|
G|--12-x--9--x--9--10--10-x-11-11--x--12--x---9---x--9---x--12-12-x--11---------------------------------|
D|--12-x--11-x-11--12--12-x-12-12--x--12--x---11--x--11--x--13-13-x--12---------------------------------|
A|--10-x--10-x-10--10--10-x--------x--10--x---10--x--10--x--------x-------------------------------------|
E|-----x-----x------------x--------x------x-------x------x--------x-------------------------------------|

e|-10-x--------x----10----------x-------x---------------------------------------------------------------|
B|-11-x--11-11-x-11-11-13-14-14-x-13-13-x---------------------------------------------------------------|
G|-12-x--9--9--x-9--10-11-12-12-x-11-11-x---------------------------------------------------------------|
D|-12-x--11-11-x-11-12-12-13-13-x-12-12-x-5-7-5---------------------------------------------------------|
A|-10-x--10-10-x-10-10----------x-------x-5-7-5---------------------------------------------------------|
E|----x--------x----------------x-------x-3-5-3---------------------------------------------------------|

            
Submit corrections

↑ Back to top | Tablatures and chords for acoustic guitar and electric guitar, ukulele, drums are parodies/interpretations of the original songs. You may use it for private study, scholarship, research or language learning purposes only