» » »

Miniature Tigers - Viking Hearts Tabs

Artists:  A B C D E F G H I J K L M N O P Q R S T U V W X Y Z # 

Viking Hearts Tabs

(ver. 1) Click to play this song!
Miniature Tigers
 Rating:
4.2/5 (5 votes)

 Viking Hearts lessons Tabs too difficult? Try these video lessons and learn fast
 
                (Intro)
“Viking Hearts”
By Miniature Tigers

This is just the beginning of the song but if you listen you will find that it's pretty 
the same throughout with a few variations.  The verses are a bit different (not as many 
but the same progression is used.  A slightly different progression is used during the chorus.

Intro:

e-|---2-------2-------2-------2----------------0---------------0------------|
b-|------3-------3-------3--------3---0---0-------2---2---3-------2---2---0-|
g-|-------------------------------------------------------------------------|
D-|-0--0---0---0---0---0---0---0--------------------------------------------|
A-|---------------------------------0---------------------------0---0---0---|
E-|-------------------------------------3---3---3---3---3---3---------------|


e-|---------------2-------------|
b-|-------------------0---0h2---|
g-|---0---2---0-----------------|
D-|-----------------------------|
A-|-0---0---0---0---0---0-------|
E-|-----------------------------|
            
Submit corrections


        Viking Hearts lessons Hard to play? Try these video lessons and learn fast Viking Hearts lessons
        
↑ Back to top | Tablatures and chords for acoustic guitar and electric guitar, ukulele, drums are parodies/interpretations of the original songs. You may use it for private study, scholarship, research or language learning purposes only