Home » M » Mineral »

Mineral - Serenading Tabs

Artists:  A B C D E F G H I J K L M N O P Q R S T U V W X Y Z # 

Serenading Tabs

(ver. 1) Click to play this song!
Mineral
 Rating:
4/5 (4 votes)
                -----------------------------------------------------------------------------
-----------------------------------------------------------------------------
Tuning: Standard

This is only one guitar's parts. The other one follows the chords I put above though. 
Also, the outro just grows into a really messy chaos so it's hard to hear it well.

Verse:
  C                                    Em
e|-----------------------------------|-------------------------------------|
B|-------0---------------------------|-------3---------1-----0-------------|
G|-----0------------2----0-----------|-----0---0---------------------------|
D|---2----------2--------------------|---2---------2-----------------------|
A|-3----------3---3------------3-3p2-|-----------2---2---------------3-3p2-|
E|-----------------------------------|-0-----------------------------------|


Chorus:
   C                       Em
e|---------------------------------------------------|
B|-------------------------------------------555555--|
G|-555555444444555555444444555555444444444444xxxxxx--|
D|-555555555555555555555555222222222222222222222222--|
A|-333333333333333333333333222222222222222222222222--|
E|-------------------------000000000000000000000000--|


Outro: (play until song's over)
e|-3-----1-0-----1-|
B|-1-1-1-1-1-1-1-1-|
G|-0-0-0-0-0-0-0-0-|
D|-----------------|
A|-----------------|
E|-----------------|

Behind that:
e|------------------------------------------------------------------|
B|------------------------------------------------------------------|
G|-5555555555555555555555555555555544444444444444444444444444444444-|
D|-5555555555555555555555555555555555555555555555555555555555555555-|
A|-3333333333333333333333333333333322222222222222222222222222222222-|
E|------------------------------------------------------------------|

Over that:
e|----------------------------------------------------------|
B|-3-1---3-1---3-1---3-1---1-0---3-1---0-1---3-1-------1----|
G|-------------------------------------------------0-2---2--|
D|-----2-----2-----2-----2-----2-----2-----2-----2----------|
A|----------------------------------------------------------|
E|----------------------------------------------------------|
            
Submit corrections

↑ Back to top | Tablatures and chords for acoustic guitar and electric guitar, ukulele, drums are parodies/interpretations of the original songs. You may use it for private study, scholarship, research or language learning purposes only