Home » M » Milky Chance »

Milky Chance - Glass Of Wine Tabs

Artists:  A B C D E F G H I J K L M N O P Q R S T U V W X Y Z # 

Glass Of Wine Tabs

(ver. 1) Click to play this song!
Milky Chance
[Intro/Verse 1]
e|--------------------------------------------------------------------|
B|--------------------------------------------------------------------|
G|--------------------------------------------------------------------|        Play x2
D|-----------------------------------------------3--------------------|
A|---------------------------4--6---4---2-----1-----------------------|
E|---2-----2--4--5--6-----6-------------------------------------------|
 
 
e|--------------------------------------------------------------------|
B|--------------------------------------------------------------------|
G|--------------------------------------------------------------------|
D|-----------------------------------------------3--------------------|
A|---------------------------4--6---4---2-----1-----------4-----------|
E|---2-----2--4--5--6-----6-------------------------4-----------------|
 
 
[Chorus]
e|--------------------------------------------------------------------|
B|--------------------------------------------------------------------|
G|--------------------------------------------------------------------|        Play x2
D|--------------------------------------------------------------------|
A|------------4--6------2--4------------------------------------------|
E|---2-----6----------------------------------------------------------|
 
e|--------------------------------------------------------------------|
B|--------------------------------------------------------------------|
G|--------------------------------------------------------------------|
D|-------------------8-----------------------------3------------------|
A|------------4--6--------9-------8----------6--4---------------------|
E|---2-----6-----------7-----6--------6---4---------------------------|
 
 
[Verse 2]
e|--------------------------------------------------------------------|
B|--------------------------------------------------------------------|
G|--------------------------------------------------------------------|        Play x2
D|-----------------------------------------------3--------------------|
A|---------------------------4--6---4---2-----1-----------------------|
E|---2-----2--4--5--6-----6-------------------------------------------|
 
 
e|--------------------------------------------------------------------|
B|--------------------------------------------------------------------|
G|--------------------------------------------------------------------|
D|-----------------------------------------------3--------------------|
A|---------------------------4--6---4---2-----1-----------4-----------|
E|---2-----2--4--5--6-----6-------------------------4-----------------|
 
 
[Chorus]
e|--------------------------------------------------------------------|
B|--------------------------------------------------------------------|
G|--------------------------------------------------------------------|        Play x2
D|--------------------------------------------------------------------|
A|------------4--6------2--4------------------------------------------|
E|---2-----6----------------------------------------------------------|
 
 
e|--------------------------------------------------------------------|
B|--------------------------------------------------------------------|
G|--------------------------------------------------------------------|
D|-------------------8-----------------------------3------------------|
A|------------4--6--------9-------8----------6--4---------------------|
E|---2-----6-----------7-----6--------6---4---------------------------|
 
 
[Outro]
e|--------------------------------------------------------------------|
B|--------------------------------------------------------------------|
G|--------------------------------------------------------------------|
D|-----------------------------------------------3--------------------|
A|---------------------------4--6---4---2-----1-----------4-----------|
E|---2-----2--4--5--6-----6-------------------------4-----------------|
 
 
e|--------------------------------------------------------------------|
B|--------------------------------------------------------------------|
G|--------------------------------------------------------------------|        Play x2
D|--------------------------------------------------------------------|
A|------------4--6------2--4------------------------------------------|
E|---2-----6----------------------------------------------------------|
 
 
e|--------------------------------------------------------------------|
B|--------------------------------------------------------------------|
G|--------------------------------------------------------------------|
D|-------------------8-----------------------------3------------------|
A|------------4--6--------9-------8----------6--4---------------------|
E|---2-----6-----------7-----6--------6---4-----------2---------------|
            
Submit corrections

↑ Back to top | Tablatures and chords for acoustic guitar and electric guitar, ukulele, drums are parodies/interpretations of the original songs. You may use it for private study, scholarship, research or language learning purposes only