» » »

Milburn - Count To 1 Bass

Artists:  A B C D E F G H I J K L M N O P Q R S T U V W X Y Z # 

Count To 1 Bass

(ver. 1) Click to play this song!
Milburn
 Rating:
4/5 (4 votes)

 Count To 1 lessons Tabs too difficult? Try these video lessons and learn fast
 
                "(0)
G|----------------|
D|----------------|
A|----------------|
E|6~--3~--6~--1~--|

G|------------------------------------------------|
D|------------------------------------------------|
A|------------------------------------------------|
E|6~-1~-3~----6~-1~-3~--1-3-6~-1~-3~----6~-1~-3~--|

G|----------------|
D|----------------|
A|----------------|x2
E|6~--3~--6~--1~--|

G|-----------------------------------------------------------------|
D|-----------------------------------------------------------------|
A|7-7-7-7-7-7-7-7-7-7-7-7-7-7-8-8-9-9-9-9-9-9-9-9-9-9-9-9-9-9-8-8--|
E|-----------------------------------------------------------------|

G|-----------------------------------------------------------------|
D|-----------------------------------------------------------------|
A|7-7-7-7-7-7-7-7-7-7-7-7-7-7-5------------------------------------|
E|------------------------------7-6-6-6-6-6-6-6-6-5-5-5-5-5-5-5-5--|

G|-----------------------------------------------------------------|
D|-----------------------------------------------------------------|
A|7-7-7-7-7-5---7-7-7-7-7-7-5---7-9-9-9-9-9-7---9-9-9-9-9-9-7---9--|
E|------------7---------------7---------------9---------------9----|

G|---------------------------------|
D|---------------------------------|
A|7-7-7-7-7-5---7-7-7-7-7-7-5---7--|
E|------------7---------------7----|

G|---------------------------------------------------------------------------|
D|---------------------------------------------------------------------------|
A|---------------------------------------------------------------------------|
E|6----5----6-6-(7)-5-5-(6)-6-6-(7)-5-5-(6)-6-6-(7)-5-5-(6)-3-3-(5)-3-3-(5)--|

G|---------------------------------|
D|---------------------------------|
A|---------------------------------|x3
E|6-6-(7)-3-3-(5)-6-6-(7)-1-1-(3)--|

G|-----------------------------------------------------------------|
D|-----------------------------------------------------------------|
A|-----------------------------------------------------------------|
E|6-6-(7)-5-5-(6)-6-6-(7)-5-5-(6)-6-6-(7)-5-5-(6)-3-3-(5)-3-3-(5)--|

G|----------------------------------------------------|
D|----------------------------------------------------|
A|----------------------------------------------------|
E|6-6-(7)-5-5-(6)-6-6-(7)-5-5-(6)-6-6-(7)-5-5-(6)-3~--|

G|-----------------------------------------------------------------|
D|-----------------------------------------------------------------|
A|7-7-7-7-7-7-7-7-7-7-7-7-7-7-8-8-9-9-9-9-9-9-9-9-9-9-9-9-9-9-8-8--|
E|-----------------------------------------------------------------|

G|-----------------------------------------------------------------|
D|-----------------------------------------------------------------|
A|7-7-7-7-7-7-7-7-7-7-7-5-7-5-7------------------------------------|
E|------------------------------7-6-6-6-6-6-6-6-6-5-5-5-5-5-5-5-5--|

G|-----------------------------------------------------------------|
D|-----------------------------------------------------------------|
A|7-7-7-7-7-5---7-7-7-7-7-7-5---7-9-9-9-9-9-7---9-9-9-9-9-9-7---9--|
E|------------7---------------7---------------9---------------9----|

G|-----------------------------------------------------------------|
D|-----------------------------------------------------------------|
A|7-7-7-7-7-5---7-7-7-7-7-7-5---7----------------------------------|
E|------------7---------------7---6-6-6-6-6-6-6-6-5-5-5-5-5-5-5-5--|

====
G|-----------------------------------------------------------------|
D|-----------------------------------------------------------------|
A|7-7-7-7-7-7-7-7-7-7-7-7-7-7-8-8-9-9-9-9-9-9-9-9-9-9-9-9-9-9-8-8--|
E|-----------------------------------------------------------------|

G|-----------------------------------------------------------------|
D|-----------------------------------------------------------------|
A|7-7-7-7-7-7-7-7-7-7-7-5-7-5-7------------------------------------|
E|------------------------------7-6-6-6-6-6-6-6-6-5-5-5-5-5-5-5-5--|
====x2

G|-----------------------------------------------------------------|
D|-----------------------------------------------------------------|
A|7-7-7-7-7-5---7-7-7-7-7-7-5---7-9-9-9-9-9-7---9-9-9-9-9-9-7---9--|
E|------------7---------------7---------------9---------------9----|

G|-----------------------------------------------------------------|
D|-----------------------------------------------------------------|
A|7-7-7-7-7-5---7-7-7-7-7-7-5---7----------------------------------|
E|------------7---------------7---6-6-6-6-6-6-6-6-5-5-5-5-5-5-5-5--|

G|-----------------------------------------------------------------|
D|-----------------------------------------------------------------|
A|7-7-7-7-7-5---7-7-7-7-7-7-5---7-9-9-9-9-9-7---9-9-9-9-9-9-7---9--|
E|------------7---------------7---------------9---------------9----|

G|-----------------------------------|
D|-----------------------------------|
A|7-7-7-7-7-5---7-7-7-7-7-7-5---7----|
E|------------7---------------7---6--|
"            
Submit corrections


        Count To 1 lessons Hard to play? Try these video lessons and learn fast Count To 1 lessons
        
↑ Back to top | Tablatures and chords for acoustic guitar and electric guitar, ukulele, drums are parodies/interpretations of the original songs. You may use it for private study, scholarship, research or language learning purposes only