» » »

Milburn - Come Away With Me Tabs

Artists:  A B C D E F G H I J K L M N O P Q R S T U V W X Y Z # 

Come Away With Me Tabs

(ver. 1) Click to play this song!
Milburn
 Rating:
3.7/5 (25 votes)

 Come Away With Me  lessons Tabs too difficult? Try these video lessons and learn fast
 
                Tuning:Standard

The stabs at the start are the 3 high strings of the Am barr chord.

     Am             Dm              Am              Dm
e|---------------------------------------------------------------------------|
B|---------------------------------------------------------------------------|
G|---------------7---------------7----------------7--------------------------|
D|------7---10----------7---10-----------7---10----------7---10---7----------|
A|---------------------------------------------------------------------------|
E|---------------------------------------------------------------------------|
This goes on during the verse.


Part two:
   "You've thrown away the ket etc"
  Dm                   G                 Em                Am
e|---------------------------------------------------------------------------|
B|---------------------------------------------------------------------------|
G|----7---7--9--7-------------------7--9-9-9-9--7----------------------------|
D|------------------10--9----9--10----------------10--7---5--7--10-----------|
A|---------------------------------------------------------------------------|
E|---------------------------------------------------------------------------|


  Dm                G              Am
e|---------------------------------------------------------------------------|
B|---------------------------------------------------------------------------|
G|---7---7-9-7---------------------------------------------------------------|
D|--------------10--9---5--7--5----------------------------------------------|
A|-------------------------------7-------------------------------------------|
E|----------------------------------5------3/5---3/5---3/5-------------------|


"The sun, may never shine etc." 
  Dm              G            Em     Dm    C      Am
e|---------------------------------------------------------------------------|
B|---------------------------------------------------------------------------|
G|--7--7-9-7----------------7--9-9-9-9--7------------------------------------|
D|------------10--9--9--10-----------------10--7---5--7--10------------------|
A|---------------------------------------------------------------------------|
E|---------------------------------------------------------------------------|

  Dm              G                Am
e|---------------------------------------------------------------------------|
B|---------------------------------------------------------------------------|
G|---7---7-9-7---------------------------------------------------------------|
D|--------------10--9---5--7--5----------------------------------------------|
A|-------------------------------7-------------------------------------------|
E|----------------------------------5------3/5---3/5---3/5-------------------|

"So it I go"
  Dm        Em       Am
e|-------------------------5-------------------------------------------------|
B|-----------------------5---5------------------------------------------------|
G|--7--5--7/9--7--5----5-------5----------------------------------------------|   X4
D|-------------------7-------------------------------------------------------|
A|---------------------------------------------------------------------------|
E|---------------------------------------------------------------------------|

  "We could be strangers"
  Dm         Em       F          G            Am
e|--------------------------------------------12-----------------------------|
B|--------------------------------------------13-----------------------------|
G|--7--5--7--9--7--9--10--9--10--12--10--12---14-----------------------------|
D|---------------------------------------------------------------------------|
A|---------------------------------------------------------------------------|
E|---------------------------------------------------------------------------|

Back to the top

Break, key change up to A#m

Solo
      A#m               Fm             A#m              Fm
e|----6-6-6/13-13-13----1-1-1/8-8-8----6-6-6/13-13-13---1--1-1-4-1-4---------|
B|----6-6-6/13-13-13----1-1-1/8-8-8----6-6-6/13-13-13---1--1-1-4-1-4---------|
G|---------------------------------------------------------------------------|  X2
D|---------------------------------------------------------------------------|
A|---------------------------------------------------------------------------|
E|---------------------------------------------------------------------------|

   "So if I go"
   A#m              Fm
e|---6---6---6---6---8---8---8---8-------------------------------------------|
B|-----6---6---6---6---9---9---9---9-----------------------------------------|
G|---------------------------------------------------------------------------|  X4
D|---------------------------------------------------------------------------|
A|---------------------------------------------------------------------------|
E|---------------------------------------------------------------------------|            
Submit corrections


        Come Away With Me  lessons Hard to play? Try these video lessons and learn fast Come Away With Me  lessons
        
↑ Back to top | Tablatures and chords for acoustic guitar and electric guitar, ukulele, drums are parodies/interpretations of the original songs. You may use it for private study, scholarship, research or language learning purposes only