» » »

Mike Oldfield - Platinum Part 4 North Star Tabs

Artists:  A B C D E F G H I J K L M N O P Q R S T U V W X Y Z # 

Platinum Part 4 North Star Tabs

(ver. 1) Click to play this song!
Mike Oldfield
 Rating:
4/5 (4 votes)

 Platinum Part 4 North Star lessons Tabs too difficult? Try these video lessons and learn fast
 
                Mike Oldfield
Platinum Part IV - "North Star"


Acoustic Steel String ?
00:32
[----------p-p-h--|--h----------|------8--6--|----------p-p-h--|--h--------]
[-8----6--8-6-4-6-|-6-8--6--4---|-8--6-------|-8----6--8-6-4-6-|-6-8--6-4--]
[-----------------|-----------5-|------------|-----------------|----------5]
[-----------------|-------------|------------|-----------------|-----------]
[-----------------|-------------|------------|-----------------|-----------]
[-----------------|-------------|------------|-----------------|-----------]
  
         h                                                          s
[-------8-10--8--|------------p--p--h----|----h----------------|--8-\-15-15]
[--8--6----------|--13--15--16-15-13-15--|--16-18--18--16--13--|-----------]
[----------------|-----------------------|---------------------|-----------]
[----------------|-----------------------|---------------------|-----------]
[----------------|-----------------------|---------------------|-----------]
[----------------|-----------------------|---------------------|-----------]

          s               p          h            p  p  h       h        s
[--15--13-\--18--15--|--15-13--15--13-15--13-|--15-13-11-13-|-13-15-13-11\8]
[--------------------|-----------------------|--------------|--------------]
[--------------------|-----------------------|--------------|--------------]
[--------------------|-----------------------|--------------|--------------]
[--------------------|-----------------------|--------------|--------------]
[--------------------|-----------------------|--------------|--------------]
 
    h   
[--8-11-----h-------------]
[-------8--8-11--6--11----]
[-----------------------5-]
[-------------------------]
[-------------------------]
[-------------------------]


Overdrive Guitar
01:37                                                 h p
[---s--------p-p-h--|--h------------|-------8--6--|--3-6-3-|------p-p-h---]
[---\-8--6--8-6-4-6-|-6-8--6--4-----|--8--6-------|--------|--6--8-6-4-6--]
[-5-----------------|------------5--|-------------|--------|--------------]
[-------------------|---------------|-------------|--------|--------------]
[-------------------|---------------|-------------|--------|--------------]
[-------------------|---------------|-------------|--------|--------------]

[----h------------|--------10--8--|----s---------|----p--p--------]
[---6-8--6--4-----|--8--6---------|--8-\-13--15--|--16-15-13--15--]
[--------------5--|---------------|--------------|----------------|
[-----------------|---------------|--------------|----------------|
[-----------------|---------------|--------------|----------------|
[-----------------|---------------|--------------|----------------|
                               s             h  p    s     s
[----h------h-------s-----|--8-\-15-15--|--13-15-13--\--20-\18--]
[--16-18--16-18--16-\-13--|-------------|-----------------------]
[-------------------------|-------------|-----------------------]
[-------------------------|-------------|-----------------------]
[-------------------------|-------------|-----------------------]
[-------------------------|-------------|-----------------------]
     h  p         h          h  p  p  h         h           s
[--15-18-15--|--15-18--13--13-15-13-11-13--|--13-15--13--11-\-8--]
[------------|-----------------------------|---------------------]
[------------|-----------------------------|---------------------]
[------------|-----------------------------|---------------------]
[------------|-----------------------------|---------------------]
[------------|-----------------------------|---------------------]
    h                           s
[--8-11-----h-------------|--8--\---]
[-------8--8-11--6--11----|---------]
[-----------------------5-|---------]
[-------------------------|---------]
[-------------------------|---------]
[-------------------------|---------]


Chords
02:42
   G#                          A#
[--3--3-3----3--3-3----3-3--|--6--6-6----6--6-6----6-6--]
[--3--3-3----3--3-3----3-3--|--6--6-6----6--6-6----6-6--]
[--5--5-5----5--5-5----5-5--|--7--7-7----7--7-7----7-7--]
[--6--6-6----6--6-6----6-6--|--8--8-8----8--8-8----8-8--]
[--6--6-6----6--6-6----6-6--|--8--8-8----8--8-8----8-8--]
[--3--3-3----3--3-3----3-3--|--6--6-6----6--6-6----6-6--]

  Cm
[--8---8--8----8---8--8----8--8---]
[--8---8--8----8---8--8----8--8---]
[--8---8--8----8---8--8----8--8---]
[--10--10-10---10--10-10---10-10--]
[--10--10-10---10--10-10---10-10--]
[--8---8--8----8---8--8----8--8---]


Overdrive Guitar Continued
03:14
     s          h  p         h  p  p  h         h           s    s
[--3-\-15-15--13-15-13--|--13-15-13-11-13--|--13-15--13--11-\-8--\-]
[-----------------------|------------------|-----------------------]
[-----------------------|------------------|-----------------------]
[-----------------------|------------------|-----------------------]
[-----------------------|------------------|-----------------------]
[-----------------------|------------------|-----------------------]

     s          h  p       s     s       h  p       h          h  p  p  h
[--3-\-15-15--13-15-13--|--\--20-\18-|-15-18-15-|-15-18--13--13-15-13-11-13]
[-----------------------|------------|----------|--------------------------]
[-----------------------|------------|----------|--------------------------]
[-----------------------|------------|----------|--------------------------]
[-----------------------|------------|----------|--------------------------]
[-----------------------|------------|----------|--------------------------]

     h          s   s     s          h  p    s                   s    s
[--13-15-13-11--\-8-\--|3-\-15-15--13-15-13--\--22--20--20-20-20-\-15-\-20-]
[----------------------|---------------------------------------------------]
[----------------------|---------------------------------------------------]
[----------------------|---------------------------------------------------]
[----------------------|---------------------------------------------------]
[----------------------|---------------------------------------------------]
                                             this part bends to 28 fret
                                             then bend it to about 26 fret

     s         p  p         b rb              b   b  b  b   b hold 26 fret
[--20\22-22--23-22-20-22-|-23-23-23-20-|--20--24--24-24-24--24--24----23---]
[------------------------|-------------|-----------------------------------]
[------------------------|-------------|-----------------------------------]
[------------------------|-------------|-----------------------------------]
[------------------------|-------------|-----------------------------------]
[------------------------|-------------|-----------------------------------]

     h  p      s     p     h        s           p  p          b rb    s
[--22-23-22--22\20-20-18-18-20-20-20\22-22-|--23-22-20-22--|-23-23-23-\20--]
[------------------------------------------|---------------|---------------]
[------------------------------------------|---------------|---------------]
[------------------------------------------|---------------|---------------]
[------------------------------------------|---------------|---------------]
[------------------------------------------|---------------|---------------]

      s       h             h             s
[--20-\-15--15-18--13-|-6--6-8--h-------8-\--]---8-]
[---------------------|--------5-8----8------]-8---]
[---------------------|------------5---------]-----]
[---------------------|----------------------]-----]
[---------------------|----------------------]-----]
[---------------------|----------------------]-----]

If Anyone Can Improve It Any Where Leave Comments. Thx
            
Submit corrections


        Platinum Part 4 North Star lessons Hard to play? Try these video lessons and learn fast Platinum Part 4 North Star lessons
        
↑ Back to top | Tablatures and chords for acoustic guitar and electric guitar, ukulele, drums are parodies/interpretations of the original songs. You may use it for private study, scholarship, research or language learning purposes only