» » »

Mike Oldfield - Platinum Part 2 Platinum Tabs

Artists:  A B C D E F G H I J K L M N O P Q R S T U V W X Y Z # 

Platinum Part 2 Platinum Tabs

(ver. 1) Click to play this song!
Mike Oldfield
 Rating:
4/5 (4 votes)

 Platinum Part 2 Platinum lessons Tabs too difficult? Try these video lessons and learn fast
 
                BAND - MIKE OLDFIELD
SONG - PLATINUM PT 2 PLATINUM 


(Section 1)
[------------p---------|-11---p------------|--------p------]
[-------11-14-11-------|----14-11----------|-----6-9-6-----]
[----11----------11----|----------11----11-|---6-------6---]
[-13----------------13-|-------------13----|-8-----------8-]
[----------------------|-------------------|---------------]
[----------------------|-------------------|---------------]


[-------------------11---p---------]
[-------------11-------14-13-11----]
[-------10-------13-------------13-]
[----------13----------------------]
[-11-13----------------------------]
[----------------------------------]


[------------p---------|-11---p------------|--------p------]
[-------11-14-11-------|----14-11----------|-----6-9-6-----]
[----11----------11----|----------11----11-|---6-------6---]
[-13----------------13-|-------------13----|-8-----------8-]
[----------------------|-------------------|---------------]
[----------------------|-------------------|---------------]


[-------------------11---p---------]
[-------------11-------14-13-11----]
[-------10-------13----------------]
[----------13----------------------]
[-11-13----------------------------]
[----------------------------------]

              p             s
[--------11-14-11-16-14-|-16\14-14-11----------]
[----12-----------------|-------------12----12-]
[-13--------------------|----------------13----]
[-----------------------|----------------------]
[-----------------------|----------------------]
[-----------------------|----------------------]


[------------p---11----|-11---p------------|--------p--6---]
[-------11-14-11----14-|----14-11----------|-----6-9-6---9-]
[----11----------------|----------11----11-|---6-----------]
[-13-------------------|-------------13----|-8-------------]
[----------------------|-------------------|---------------]
[----------------------|-------------------|---------------]


[-------------------11---p---------|------------p------------]
[-------------11-------14-13-11----|-------11-14-11----------]
[-------10-------13-------------13-|----11----------11-----s-]
[----------13----------------------|-13----------------13--\-] 
[-11-13----------------------------|-------------------------]
[----------------------------------|-------------------------]


[------------p---11----|-11---p------------|--------p--6---]
[-------11-14-11----14-|----14-11----------|-----6-9-6---9-]
[----11----------------|----------11----11-|---6-----------]
[-13-------------------|-------------13----|-8-------------]
[----------------------|-------------------|---------------]
[----------------------|-------------------|---------------]


[-------------------11---p---------]
[-------------11-------14-13-11----]
[-------10-------13-------------13-]
[----------13----------------------] 
[-11-13----------------------------]
[----------------------------------]


[------------p---11----|-11---p------------|--------p--6---]
[-------11-14-11----14-|----14-11----------|-----6-9-6---9-]
[----11----------------|----------11----11-|---6-----------]
[-13-------------------|-------------13----|-8-------------]
[----------------------|-------------------|---------------]
[----------------------|-------------------|---------------]


[-------------------11---p---------]
[-------------11-------14-13-11----]
[-------10-------13-------------13-]
[----------13----------------------] 
[-11-13----------------------------]
[----------------------------------]

              p             s
[--------11-14-11-16-14-|-16\14-14-11----------]
[----12-----------------|-------------12----12-]
[-13--------------------|----------------13----]
[-----------------------|----------------------]
[-----------------------|----------------------]
[-----------------------|----------------------]


[------------p---11----|-11---p------------|--------p--6---]
[-------11-14-11----14-|----14-11----------|-----6-9-6---9-]
[----11----------------|----------11----11-|---6-----------]
[-13-------------------|-------------13----|-8-------------]
[----------------------|-------------------|---------------]
[----------------------|-------------------|---------------]


[-------------------11---p---------]
[-------------11-------14-13-11----]
[-------10-------13-------------13-]
[----------13----------------------] 
[-11-13----------------------------]
[----------------------------------]


[------------p---------]
[-------11-14-11-------]
[----11----------11----]
[-13----------------13-]
[----------------------]
[----------------------]


01:03
(Section 2)
[--------------b-11-11----------------b-11-11-]
[-------11-14-14---------------11-14-14-------]
[----11---------------------11----------------]
[-13---------------------13-------------------]
[---------------------------------------------]
[---------------------------------------------]


[---------b-6-6------------b-6-6-]
[-----6-9-9------------6-9-9-----]
[---6----------------6-----------]
[-8----------------8-------------]
[--------------------------------]
[--------------------------------]

                                         b
[--------------b-11-11----------------b-14-11-]
[-------11-14-14---------------11-14-14-------]
[----11---------------------11----------------]
[-13---------------------13-------------------]
[---------------------------------------------]
[---------------------------------------------]


[---------b-6-6------------b-6-6-]
[-----6-9-9------------6-9-9-----]
[---6----------------6-----------]
[-8----------------8-------------]
[--------------------------------]
[--------------------------------]


[--------------b-11-11----------------b-11-11-]
[-------11-14-14---------------11-14-14-------]
[----11---------------------11----------------]
[-13---------------------13-------------------]
[---------------------------------------------]
[---------------------------------------------]

                                         b
[--------------b-11-11----------------b-14-11-]
[-------11-14-14---------------11-14-14-------]
[----11---------------------11----------------]
[-13---------------------13-------------------]
[---------------------------------------------]
[---------------------------------------------]


[---------b-6-6------------b-6-6-]
[-----6-9-9------------6-9-9-----]
[---6----------------6-----------]
[-8----------------8-------------]
[--------------------------------]
[--------------------------------]


[--------------b-11-11----------------b-11-11-----]
[-------11-14-14---------------11-14-14-----------]Repeat 
[----11---------------------11--------------------]Section 1 & 2
[-13---------------------13-----------------------]3 Times
[----------------------------------------------13-]
[-------------------------------------------------]



This Is Were It Changes
(Section 3)
03:43
[-------------------------|----------------------------|--------------]
[-------------------------|----------------------------|---s---13-----]
[-12-12-12----------------|-12-12-14-12----------------|-10\12----12--]
[----------15-14-12-------|-------------15-14-12-14-15-|--------------]
[-------------------15-12-|----------------------------|--------------]
[-------------------------|----------------------------|--------------]


[-------------------|----------------------------]
[-------------------|----------------------------]
[-12----------------|-12-12-14-12----------------]
[----15-14-12-------|-------------15-14-12-14-15-]
[-------------15-12-|----------------------------]
[-------------------|----------------------------]


[-s------------------------|----------------------------]
[-\13-13-13----------------|-13-13-15-13----------------]
[-----------15-14-12-------|-------------15-14-12-14-15-]
[--------------------15-12-|----------------------------]
[--------------------------|----------------------------]
[--------------------------|----------------------------]


[-s------------------------]
[-\15-15-15----------------]
[-----------17-16-14-------]
[--------------------17-14-]
[--------------------------]
[--------------------------]

 
             h  p
[---h--h---15-17-15---p--p------h---17-]
[-15-17-18----------18-17-15--17-18----]
[--------------------------------------]
[--------------------------------------]
[--------------------------------------]
[--------------------------------------]


[-15-15-15----------------|-14-14-14-------------]
[----------18-17-15-------|----------17-15-14----]
[-------------------17-14-|-------------------16-]
[-------------------------|----------------------]
[-------------------------|----------------------]
[-------------------------|----------------------]


[----14-16-18-16-14-16-18-|-21-21-18-------|-22-22-19-------]
[-14----------------------|----------21-19-|----------22-20-]
[-------------------------|----------------|----------------]
[-------------------------|----------------|----------------]
[-------------------------|----------------|----------------]
[-------------------------|----------------|----------------]


[-s--------p--p------------|-12-12-12-------------]
[-\15-15-15-13-12---p------|----------15-13-12----]
[-----------------14-12----|-------------------14-]
[-----------------------14-|----------------------]
[--------------------------|----------------------]
[--------------------------|----------------------]

                h  p                         s    s
[------14-16--14-16-14----14-16--19-16-14----\-19-\--]
[---17-----------------17-------|---------17---------]
[-16----------------------------|--------------------]
[-------------------------------|--------------------]
[-------------------------------|--------------------]
[-------------------------------|--------------------]


[--------------------------------------------]
[----11-------11-------14-14----14---s-------]
[-13----11-13----13----------13----13\15--11-] X2
[-------------------11-----------------------]
[--------------------------------------------]
[--------------------------------------------]

          h     h         h                   s
[-19-19-17-19-19-20-19--17-19--19-19-17-19-20-\-]
[-----------------------------------------------]
[-----------------------------------------------]
[-----------------------------------------------]
[-----------------------------------------------]
[-----------------------------------------------]

          h                   h          b
[-17-17-15-17--19-17-15-----15-17-17-15-17--17-]
[-----------------------17---------------------]
[----------------------------------------------]
[----------------------------------------------]
[----------------------------------------------]
[----------------------------------------------]

          h                         h
[-16-16-14-16--18-16-14-----16-16-14-18-16-]
[-----------------------16-----------------]
[------------------------------------------]
[------------------------------------------]
[------------------------------------------]
[------------------------------------------]

             h
[----16-16-14-16--18-16-14----|-16-18-16-------s--]
[-14-----------------------16-|----------16-14-\--] Repeat 
[-----------------------------|-------------------] (Section 3)
[-----------------------------|-------------------] When it returns
[-----------------------------|-------------------] back in.
[-----------------------------|-------------------]
            
Submit corrections


        Platinum Part 2 Platinum lessons Hard to play? Try these video lessons and learn fast Platinum Part 2 Platinum lessons
        
↑ Back to top | Tablatures and chords for acoustic guitar and electric guitar, ukulele, drums are parodies/interpretations of the original songs. You may use it for private study, scholarship, research or language learning purposes only