Home » M » Mike Oldfield »

Mike Oldfield - Pictures In The Dark Tabs

Artists:  A B C D E F G H I J K L M N O P Q R S T U V W X Y Z # 

Pictures In The Dark Tabs

(ver. 1) Click to play this song!
Mike Oldfield
 Rating:
4/5 (4 votes)
                The main solo of Mike Oldfields song Pictures In the Dark. Standard tuning.


--------9-----------|--------9----------------|
-----------12-------|----------12--9----------|
-11b(13)------9-----|-11b(13)--------11b(13)~-|
---------------11---|-------------------------|
--------------------|-------------------------|
--------------------|-------------------------|

-----------------------|------------------------|
-12-14-14b(17)-14-12---|-12-14-14b(17)-14-12----|
--------------------13-|--------------------13--|
-----------------------|------------------------|
-----------------------|------------------------|
-----------------------|------------------------|

-----------------------19-|-21b(23)21b(23)-21-21(23)-21-19--19-----|
-12-14-12-14~--------19---|-------------------------------19-------|
-------------------19-----|----------------------------------------|
-----------------21-------|----------------------------------------|
--------------------------|----------------------------------------|
--------------------------|----------------------------------------|

-23b(24)-23b(24)-23-23b(24)-21~-19-21-|-21-23-24-24b(27)-24-23-21---|
-------------------------------21-----|-----------------------------|
--------------------------------------|-----------------------------|
--------------------------------------|-----------------------------|
--------------------------------------|-----------------------------|
--------------------------------------|-----------------------------|

----------------------------------------|
-------------17-17b(19)-17b(19)-17~-----|
-21-20-18-16----------------------------|
----------------------------------------|
----------------------------------------|
----------------------------------------|

-------9--------------|--------9---------------------------|
---------12-9---------|----------12-9---------12b(14)-12---|
-11b(13)------9--9-11-|-11b(13)------11b(13)---------------|
---------------11-----|------------------------------------|
----------------------|------------------------------------|
----------------------|------------------------------------|

*=Whammy bar cracle
--------14-11---------------|-----------------|
-12b(14)------14-12--12-14*-|-12-14~--12-14~--|
-------------------14-------|-----------------|
----------------------------|-----------------|
----------------------------|-----------------|
----------------------------|-----------------|

END

This is the full version of the main solo. Theres a lot of licks there in the outro.
            
Submit corrections

↑ Back to top | Tablatures and chords for acoustic guitar and electric guitar, ukulele, drums are parodies/interpretations of the original songs. You may use it for private study, scholarship, research or language learning purposes only