» » »

Mike Oldfield - Maya Gold Tabs

Artists:  A B C D E F G H I J K L M N O P Q R S T U V W X Y Z # 

Maya Gold Tabs

(ver. 1) Click to play this song!
Mike Oldfield
 Rating:
4/5 (4 votes)

 Maya Gold lessons Tabs too difficult? Try these video lessons and learn fast
 
                |~~~~~~~~~~~~~~~~~~~~~~~~~~~~~~~~~~~~~~~~~|
|  Author    : Mike Oldfield              |
|  Song      : Maya Gold                  |
|                                         |
|                                         |
|  Album     : Tubular Bells 2            |
|                                         |
|_________________________________________|
|                                         |
| ^^ = fast tremolo                       |
|					  |
| p = pull off                            |
| h = hammer on				  |
|					  |
| 5b7 = bend 5th fret to 7th		  |
| r = release bend			  |
|					  |
| 5<10> = tapped Harmonics, here: fret at |
|         5 an fastly tap on the 10th fret|
|_________________________________________|

============================================================================================
 Maya Gold (Tubular Bells 2) - 4/4 time
============================================================================================

0:04

e-|------12-------------------15---------------------------------|
B-|---------15/17\15----13h15----15/17---------------------------|
G-|---12---------------------------------------------------------|
D-|--------------------------------------------------------------|
A-|--------------------------------------------------------------|
E-|--------------------------------------------------------------|

0:39                      0:55

e-|-------------------------------------------------------------------------|
B-|-------------------------------------------------------------------------|
G-|---11b12r11p9-----------11b12r12-9-11/12-------------------------9/11-9--|
D-|--------------12-9-----------------------12---------------12-------------|
A-|----------------------------------------------10----10/12----------------|
E-|-------------------------------------------------12----------------------|

1:10                                    1:17

e-|--------------------------------------17b19-12-14-14b15r14--12-14-15---------------|
B-|---------------------------------------------------------------------15------------|
G-|-------------------<12>--------<7>--------------------------------------------<12>-|
D-|-----2h4-5---------------<12>--------------------------------------------<12>------|
A-|---2-------------------------------------------------------------------------------|
E-|--------------<12>-----------------------------------------------------------------|

1:27

e-|-------------------------------------------------------------------|
B-|-------------------------13\12p10----------------------------------|
G-|-------------------------------------------------9/11-----9/11-----|
D-|--------------10/12/14-----------------<12>-----------12-----------|
A-|-----------10---------------------<12>-------------------------12--|
E-|--8/10/12----------------------------------------------------------|

1:41

e-|-------------------------------------------------------------------|
B-|-----------------------------------12--------15--------------------|
G-|---------------------9/11-9--12/14-----12/14----14b16--------------|
D-|----------------7--------------------------------------------------|
A-|--------7---7h9----------------------------------------------------|
E-|--7/8-7------------------------------------------------------------|

1:55

e-|-----------------------------------19b20r19-17----------------14-----------------------14------|
B-|----------17-17----------19h20-------------------15b17-15-17-----17b19----15b17-15-17-----15b17|
G-|------16---------19b21---------16--------------------------------------------------------------|
D-|---17------------------------------------------------------------------------------------------|
A-|-----------------------------------------------------------------------------------------------|
E-|-----------------------------------------------------------------------------------------------|

2:10					     2:16

e-|-------------------------------------------------14h15-14---------------------------------|
B-|-------------------------12-------------------------------15------------------------------|
G-|---------12-11-11b12--------11b12r11----12-14----------------14b16r14b16r14p12--11h12h14--|
D-|------14--------------14-------------14---------------------------------------------------|
A-|---14-------------------------------------------------------------------------------------|
E-|------------------------------------------------------------------------------------------|

2:19

e-|--------------------------------------13b14r13--------------------------19-------------------|
B-|-----------------------------------------------------------19b20r19--17----19-19b20r19-17----|
G-|--12p11-12-----12-14----14b16r14b16------------14-14b16--------------------------------------|
D-|------------14-------------------------------------------------------------------------------|
A-|---------------------------------------------------------------------------------------------|
E-|---------------------------------------------------------------------------------------------|

2:29

e-|------------20---------------------------------------3---------|
B-|---------17----17-17-17b19^--------------------------3---------|
G-|---17/19---------------------------------------------4---------|
D-|---------------------------------------9-12/14-12----5---------|
A-|---------------------------------10/12---------------5---------|
E-|-----------------------------------------------------3---------|
            
Submit corrections


        Maya Gold lessons Hard to play? Try these video lessons and learn fast Maya Gold lessons
        
↑ Back to top | Tablatures and chords for acoustic guitar and electric guitar, ukulele, drums are parodies/interpretations of the original songs. You may use it for private study, scholarship, research or language learning purposes only