» » »

Mike Oldfield - Dark Islands Tabs

Artists:  A B C D E F G H I J K L M N O P Q R S T U V W X Y Z # 

Dark Islands Tabs

(ver. 1) Click to play this song!
Mike Oldfield
 Rating:
4.3/5 (29 votes)

 Dark Islands  lessons Tabs too difficult? Try these video lessons and learn fast
 
                
00:14
Classical Guitar           
                                                               h  p  
e|-7-9-7----|---s------s----------|----7-9-7----9-12-|---9-12-9-10-9-7-|
B|-------10-|-10\12-10-\-7------s-|-10------10-------|-----------------|
G|----------|--------------9-7-9\-|------------------|-9---------------|
D|----------|---------------------|------------------|-----------------|
A|----------|---------------------|------------------|-----------------|
E|----------|---------------------|------------------|-----------------|

                                                br
e|---7-9-7----|---s------s----------|----7-9-12-9-7-9-7--------|
B|-7-------10-|-10\12-10-\-7------s-|-10----------------10--10-|
G|------------|--------------9-7-9\-|--------------------------|
D|------------|---------------------|--------------------------|
A|------------|---------------------|--------------------------|
E|------------|---------------------|--------------------------|

00:45                                                         br 
e|-7-9-7----|---s------s----------|----7-9-7----9-12-|---9-12-9-7-|
B|-------10-|-10\12-10-\-7----s-s-|-10------10-------|------------|
G|----------|--------------9-7\9\-|------------------|-9----------|
D|----------|---------------------|------------------|------------|
A|----------|---------------------|------------------|------------|
E|----------|---------------------|------------------|------------|

                                                br
e|---7-9-7----|---s------s----------|----7-9-12-9-7-9-7--------|
B|-7-------10-|-10\12-10-\-7------s-|-10----------------10--10-|
G|------------|--------------9-7-9\-|--------------------------|
D|------------|---------------------|--------------------------|
A|------------|---------------------|--------------------------|  
E|------------|---------------------|--------------------------|     


-----------------------
01:16
MANDOLIN COMES IN
******************
                                                       br
e|-12--9-7----|------------|----7-9-7----9-12-|---9-12-9-7-|
B|---------10-|--s---------|-10------10-------|------------|
G|------------|-9\11-9-7-9-|------------------|-9----------|
D|------------|------------|------------------|------------|
A|------------|------------|------------------|------------|
E|------------|------------|------------------|------------|

                                                br
e|---7-9-7----|---s------s----------|----7-9-12-9-7-9-7--------|
B|-7-------10-|-10\12-10-\-7------s-|-10----------------10--10-|
G|------------|--------------9-7-9\-|--------------------------|
D|------------|---------------------|--------------------------|
A|------------|---------------------|--------------------------|
E|------------|---------------------|--------------------------|

01:46                                                         br
e|-7-9-7----|---s------s----------|----7-9-7----9-12-|---9-12-9-7-|
B|-------10-|-10\12-10-\-7----s-s-|-10------10-------|------------|
G|----------|--------------9-7\9\-|------------------|-9----------|
D|----------|---------------------|------------------|------------|
A|----------|---------------------|------------------|------------|
E|----------|---------------------|------------------|------------|

                                                br
e|---7-9-7----|---s------s----------|----7-9-12-9-7-9-7--------------h---|
B|-7-------10-|-10\12-10-\-7------s-|-10-----------------s---10-12-10-12-|
G|------------|--------------9-7-9\-|-------------------9\11-------------|Play all
D|------------|---------------------|------------------------------------|  Above from
A|------------|---------------------|------------------------------------|    Mandolin Again  
E|------------|---------------------|------------------------------------|  


-----------------------
02:47
MANDOLIN - No Guitar
*********


-----------------------         
03:45                                                         br
e|-7-9-7----|---s------s----------|----7-9-7----9-12-|---9-12-9-7-|
B|-------10-|-10\12-10-\-7----s-s-|-10------10-------|------------|
G|----------|--------------9-7\9\-|------------------|-9----------|
D|----------|---------------------|------------------|------------|
A|----------|---------------------|------------------|------------|
E|----------|---------------------|------------------|------------|

                                                br
e|---7-9-7----|---s------s----------|----7-9-12-9-7-9-7--------|
B|-7-------10-|-10\12-10-\-7------s-|-10----------------10--10-|
G|------------|--------------9-7-9\-|--------------------------|
D|------------|---------------------|--------------------------|
A|------------|---------------------|--------------------------|  
E|------------|---------------------|--------------------------|


-----------------------
04:16
MANDOLIN COMES IN
******************
                                                       br
e|-12--9-7----|------------|----7-9-7----9-12-|---9-12-9-7-|
B|---------10-|--s---------|-10------10-------|------------|
G|------------|-9\11-9-7-9-|------------------|-9----------|
D|------------|------------|------------------|------------|
A|------------|------------|------------------|------------|
E|------------|------------|------------------|------------|

                                                br
e|---7-9-7----|---s------s----------|----7-9-12-9-7-9-7--------|
B|-7-------10-|-10\12-10-\-7------s-|-10----------------10--10-|
G|------------|--------------9-7-9\-|--------------------------|
D|------------|---------------------|--------------------------|
A|------------|---------------------|--------------------------|
E|------------|---------------------|--------------------------|X3
                                            Fade Out.............            
Submit corrections


        Dark Islands  lessons Hard to play? Try these video lessons and learn fast Dark Islands  lessons
        
↑ Back to top | Tablatures and chords for acoustic guitar and electric guitar, ukulele, drums are parodies/interpretations of the original songs. You may use it for private study, scholarship, research or language learning purposes only