Home » M » Mike Oldfield »

Mike Oldfield - Crises Tabs

Artists:  A B C D E F G H I J K L M N O P Q R S T U V W X Y Z # 

Crises Tabs

(ver. 1) Click to play this song!
Mike Oldfield
 Rating:
4.4/5 (5 votes)
                
  e|--------------------------------------------------------15-------14------12-----------------|
  B|---10b12-12r10p8-----10b12-10b12-12r10p8-----8-10-10/12----12-10----10-8----8----8-10-------|
  G|-----------------9-9---------------------9-9----------------------------------11------------|
  D|--------------------------------------------------------------------------------------------|
  A|--------------------------------------------------------------------------------------------|
  E|--------------------------------------------------------------------------------------------|

  e|--------------------------------------------------------15-------14------12-----------------|
  B|---10b12-12r10p8-----10b12-10b12-12r10p8-----8-10-10/12----12-10----10-8----8----8-10-------|
  G|-----------------9-9---------------------9-9----------------------------------11------------|
  D|--------------------------------------------------------------------------------------------|
  A|--------------------------------------------------------------------------------------------|
  E|--------------------------------------------------------------------------------------------|

  e|------------------------12----------------------12-------15----------17----------19----19---|
  B|---10b12-12r10p8-----------10b12-12r10p8-----------10/12----12-12/14----14-14/16----14-14---|
  G|-----------------9-11--------------------9-11-----------------------------------------------|
  D|----------------------9-----------------------9---------------------------------------------|
  A|--------------------------------------------------------------------------------------------|
  E|--------------------------------------------------------------------------------------------|

  e|------------------------12----------------------15-------15----------17----------19----19---|
  B|---10b12-12r10p8-----------10b12-12r10p8-----------10/12----12-12/14----14-14/16----14-14---|
  G|-----------------9-11--------------------9-11-----------------------------------------------|
  D|----------------------9-----------------------9---------------------------------------------|
  A|--------------------------------------------------------------------------------------------|
  E|--------------------------------------------------------------------------------------------|

  e|--------------------------------------------------------15-------14------12-----------------|
  B|---10b12-12r10p8-----10b12-10b12-12r10p8-----10-8-10/12----12-10----10-8----8----8-10-------|
  G|-----------------9-9---------------------9-9----------------------------------11------------|
  D|--------------------------------------------------------------------------------------------|
  A|--------------------------------------------------------------------------------------------|
  E|--------------------------------------------------------------------------------------------|

  e|--------------------------------------------------------15-------14------12-----------------|
  B|---10b12-12r10p8-----10b12-10b12-12r10p8-----10-8-10/12----12-10----10-8----8----8-10-------|
  G|-----------------9-9---------------------9-9----------------------------------11------------|
  D|--------------------------------------------------------------------------------------------|
  A|--------------------------------------------------------------------------------------------|
  E|--------------------------------------------------------------------------------------------|

  e|------------------12----------------------12-------15----------17----------19----14---------|
  B|---12dr0p8-----------10b12-12r10p8-----------10/12----12-12/14----14-14/16----14------------|
  G|-----------9-11--------------------9-11-----------------------------------------------------|
  D|----------------9-----------------------9---------------------------------------------------|
  A|--------------------------------------------------------------------------------------------|
  E|--------------------------------------------------------------------------------------------|

  e|---------------------12----------------------12-------15----------17----------19----19------|
  B|------12r10p8-----------10b12-12r10p8-----------10/12----12-12/14----14-14/16----14-14------|
  G|---11---------9-11--------------------9-11--------------------------------------------------|
  D|-------------------9-----------------------9------------------------------------------------|
  A|--------------------------------------------------------------------------------------------|
  E|--------------------------------------------------------------------------------------------|

  e|--------------------------------------------------------15-------14------12-----------------|
  B|---10b12-12r10p8-----10b12-10b12-12r10p8-----8-10-10/12----12-10----10-8----8----8-10-------|
  G|-----------------9-9---------------------9-9----------------------------------11------------|
  D|--------------------------------------------------------------------------------------------|
  A|--------------------------------------------------------------------------------------------|
  E|--------------------------------------------------------------------------------------------|

  e|--------------------------------------------------------15-------14------12-----------------|
  B|---10b12-12r10p8-----10b12-10b12-12r10p8-----8-10-10/12----12-10----10-8----8----8-10-------|
  G|-----------------9-9---------------------9-9----------------------------------11------------|
  D|--------------------------------------------------------------------------------------------|
  A|--------------------------------------------------------------------------------------------|
  E|--------------------------------------------------------------------------------------------|

  e|------------------12----------------------12-------15----------17----------19----19---------|
  B|---12r10p8-----------10b12-12r10p8-----------10/12----12-12/14----14-14/16----14-14---------|
  G|-----------9-11--------------------9-11-----------------------------------------------------|
  D|----------------9-----------------------9---------------------------------------------------|
  A|--------------------------------------------------------------------------------------------|
  E|--------------------------------------------------------------------------------------------|

  e|---------------------12----------------------12-------15----------17----------19----19------|
  B|------12r10p8-----------10b12-12r10p8-----------10/12----12-12/14----14-14/16----14-14------|
  G|---11---------9-11--------------------9-11--------------------------------------------------|
  D|-------------------9-----------------------9------------------------------------------------|
  A|--------------------------------------------------------------------------------------------|
  E|--------------------------------------------------------------------------------------------|

  e|--------------------------------------------------------15-------14------12-----------------|
  B|---10b12-12r10p8-----10b12-10b12-12r10p8-----8-10-10/12----12-10----10-8----8----8-10-------|
  G|-----------------9-9---------------------9-9----------------------------------11------------|
  D|--------------------------------------------------------------------------------------------|
  A|--------------------------------------------------------------------------------------------|
  E|--------------------------------------------------------------------------------------------|

  e|--------------------------------------------------------15-------14----------|
  B|---10b12-12r10p8-----10b12-10b12-12r10p8-----8-10-10/12----12-10----10-------|
  G|-----------------9-9---------------------9-9---------------------------9-9---| and then starts
  D|-----------------------------------------------------------------------------| the next riff...
  A|-----------------------------------------------------------------------------|
  E|-----------------------------------------------------------------------------|
             
Submit corrections

↑ Back to top | Tablatures and chords for acoustic guitar and electric guitar, ukulele, drums are parodies/interpretations of the original songs. You may use it for private study, scholarship, research or language learning purposes only