Home » M » Mike Oldfield »

Mike Oldfield - Chariots Tabs

Artists:  A B C D E F G H I J K L M N O P Q R S T U V W X Y Z # 

Chariots Tabs

(ver. 1) Click to play this song!
Mike Oldfield
 Rating:
4.3/5 (29 votes)
                02:54
e|-b-0-b-0-b-0-b-0-b----------------------|--------------------------------|---------------|
B|-3---3---3---3---3------h-p-p--b-/\/\/\-|--s--2-4--s------h-p-p----------|---------------|
G|-------------------4-2-2-4-2-0-2--------|-2\4-----2\4-2--2-4-2-0--p------|------h-p------|
D|----------------------------------------|------------------------0-2~~~~-|--h--0-2-0-----|
A|----------------------------------------|--------------------------------|-0-2-----------|
E|----------------------------------------|--------------------------------|-----------3-0-|


e|-b-0-b-0-b-------------------|----------------br-|
B|-3---3---3-------h-p-p--b----|---------br----10--|
G|-----------4-2--2-4-2-0-2~~~-|---9-11-11-9-------|
D|-----------------------------|-9-----------9-----|
A|-----------------------------|-------------------|
E|-----------------------------|-------------------|

                                          ????????????????????????????????????????????
e|--b-12--b-12--b-UB----|----------------|---h--p-------------------------------------|
B|-15----15----15-12----|---h--p-------b-|-10-12-10------h--p-----------------------b-|
G|----------------14-14-|-14-16-14-12-14-|----------12-10-12-10----------10--12-14-14-|
D|----------------------|----------------|----------------------12-10-12--------------|
A|----------------------|----------------|--------------------------------------------|
E|----------------------|----------------|--------------------------------------------|
            
Submit corrections

↑ Back to top | Tablatures and chords for acoustic guitar and electric guitar, ukulele, drums are parodies/interpretations of the original songs. You may use it for private study, scholarship, research or language learning purposes only