Home » M » Mike Oldfield »

Mike Oldfield - Argiers Tabs

Artists:  A B C D E F G H I J K L M N O P Q R S T U V W X Y Z # 

Argiers Tabs

(ver. 1) Click to play this song!
Mike Oldfield
 Rating:
4.3/5 (26 votes)
                Chords voicings with no capo

   Am       Bm      CMaj7    FMaj#11    G     Dm    C
e|--0--------0--------0--------0--------3------2----0----|
B|--0--------0--------0--------0--------3------3----1----|
G|--5--------7--------9--------2--------0------1----0----|
D|--7--------9-------10--------3--------0------0----2----|
A|--7--------9-------10--------3--------2-----------3----|
E|--------------------------------------3----------------|


Chords voicings with capo on 5th fret

   Am        Bm    CMaj7       FMaj#11    G     Dm    C
e|-0----------0------0-----------2--------2-----0-----3------|
B|-0----------0------0-----------0--------3-----1-----3------|
G|-0----------2------4-----------0--------2-----2-----0------|
D|-2----------4------5-----------2--------0-----2-----0------|
A|-2----------4------5-----------3--------------0-----2------|
E|-0--------------------------------------------------3------|


Song Structure: Intro, Section 1(x2), Section 2(x2), Section 1(x2), Section 2(x2)



[Intro]

| Am     | Bm     | CMaj7  | Bm     |
| Am     | Bm     | CMaj7  | Bm     |

[Guitar Chords - Section 1]

| Am     | Bm     | CMaj7  | Bm     |
| Am     | Bm     | CMaj7  | Bm     |
| Am     | Bm     | CMaj7  | FMaj#11|
| Am     | Bm     | FMaj13 | FMaj#11|

[Guitar Chords - Section 2]

| G      | G      | G      | G      |
| G      | G      | G      | G      |
| Dm     | Dm     | C      | G      |    
| Am     | Bm     | FMaj13 | FMaj#11|



[Flute - Section 1]

e|--8--10--12--13-12-10-------------------15------15--13-12------|
B|-----------------------13--12--8------------15------------13---|
G|---------------------------------------------------------------|
D|---------------------------------------------------------------|
A|---------------------------------------------------------------|
E|---------------------------------------------------------------|

e|--8--10--12--13-12-10----8----7----8-10------------7-8-10-8-7-8-10-8-10-12-8-|
B|----------------------------------------8-------10---------------------------|
G|-----------------------------------------------------------------------------|
D|-----------------------------------------------------------------------------|
A|-----------------------------------------------------------------------------|
E|-----------------------------------------------------------------------------|

[Flute - Section 2]

e|10p8-7-8-10------------15------15-------------------15------15---15-|
B|---------------------------15------15-13-12-13-15-------15----------|
G|--------------------------------------------------------------------|
D|--------------------------------------------------------------------|
A|--------------------------------------------------------------------|
E|--------------------------------------------------------------------|


e|-15-13-12-13---15-13-12-------------------------7-8-10-8-7-8-10-8-10-12-8-|
B|-------------------------15-13-15------8-----10---------------------------|
G|--------------------------------------------------------------------------|
D|--------------------------------------------------------------------------|
A|--------------------------------------------------------------------------|
E|--------------------------------------------------------------------------|

            
Submit corrections

↑ Back to top | Tablatures and chords for acoustic guitar and electric guitar, ukulele, drums are parodies/interpretations of the original songs. You may use it for private study, scholarship, research or language learning purposes only