Home » M » Mika »

Mika - Stardust Tabs

Artists:  A B C D E F G H I J K L M N O P Q R S T U V W X Y Z # 

Stardust Tabs

(ver. 1) Click to play this song!
Mika
[Intro]
    Gadd9             Cadd9
e|----------3-------|------3--------|-----------------------------------------|
B|----------3-------|------3--------|-----------------------------------------|
G|--------0----0----|----0----0-----|-----------------------------------------|
D|------0-----------|---2-----------|-----------------------------------------|   x2 
A|----------------3-|-3----------3--|-----------------------------------------|
E|---3--------------|---------------|-----------------------------------------|

Gadd9                Cadd9           Em                 Dsus2
e|----------3-------|-------3-------|--------0--------|--0~-------------------|
B|----------3-------|-------3-------|--------0--------|--3~-------------------|
G|--------0----0----|-----0----0----|------0----0-----|--2~-------------------|
D|------0-----------|----2----------|----2------------|--0~-------------------|
A|----------------3-|--3----------3-|--------------2--|-----------------------|
E|---3--------------|---------------|--0--------------|-----------------------|

[Verse]
Gadd9                Cadd9           Em                 Dsus2
e|----------3-------|-------3-------|--------0--------|--0~-------------------|
B|----------3-------|-------3-------|--------0--------|--3~-------------------|
G|--------0----0----|-----0----0----|------0----0-----|--2~-------------------|   x6 
D|------0-----------|----2----------|----2------------|--0~-------------------|
A|----------------3-|--3----------3-|--------------2--|-----------------------|
E|---3--------------|---------------|--0--------------|-----------------------|
I could be staring at somebody new...

[Chorus]
    Gadd9              Cadd9               Em                 D
e|--3-3-3-3-3-3-3-3-|--3-3-3-3-3-3-3-3--|--0-0-0-0-0-0-0-0-|--2-2-2-2-2-2-2-2-|
B|--3-3-3-3-3-3-3-3-|--3-3-3-3-3-3-3-3--|--0-0-0-0-0-0-0-0-|--3-3-3-3-3-3-3-3-|
G|--0-0-0-0-0-0-0-0-|--0-0-0-0-0-0-0-0--|--0-0-0-0-0-0-0-0-|--2-2-2-2-2-2-2-2-|
D|--0-0-0-0-0-0-0-0-|--2-2-2-2-2-2-2-2--|--2-2-2-2-2-2-2-2-|--0-0-0-0-0-0-0-0-|
A|--2-2-2-2-2-2-2-2-|--3-3-3-3-3-3-3-3--|--2-2-2-2-2-2-2-2-|------------------|
E|--3-3-3-3-3-3-3-3-|-------------------|--0-0-0-0-0-0-0-0-|------------------|
I could put a little stardust in your eyes...

[Verse]
Gadd9                Cadd9           Em                 Dsus2
e|----------3-------|-------3-------|--------0--------|--0~-------------------|
B|----------3-------|-------3-------|--------0--------|--3~-------------------|
G|--------0----0----|-----0----0----|------0----0-----|--2~-------------------|   x4
D|------0-----------|----2----------|----2------------|--0~-------------------|
A|----------------3-|--3----------3-|--------------2--|-----------------------|
E|---3--------------|---------------|--0--------------|-----------------------|
I've seen that before, you're not even there...

[Chorus]
    Gadd9              Cadd9               Em                 D
e|--3-3-3-3-3-3-3-3-|--3-3-3-3-3-3-3-3--|--0-0-0-0-0-0-0-0-|--2-2-2-2-2-2-2-2-|
B|--3-3-3-3-3-3-3-3-|--3-3-3-3-3-3-3-3--|--0-0-0-0-0-0-0-0-|--3-3-3-3-3-3-3-3-|
G|--0-0-0-0-0-0-0-0-|--0-0-0-0-0-0-0-0--|--0-0-0-0-0-0-0-0-|--2-2-2-2-2-2-2-2-|
D|--0-0-0-0-0-0-0-0-|--2-2-2-2-2-2-2-2--|--2-2-2-2-2-2-2-2-|--0-0-0-0-0-0-0-0-|
A|--2-2-2-2-2-2-2-2-|--3-3-3-3-3-3-3-3--|--2-2-2-2-2-2-2-2-|------------------|
E|--3-3-3-3-3-3-3-3-|-------------------|--0-0-0-0-0-0-0-0-|------------------|
I could put a little stardust in your eyes...

[Verse]
    Gadd9              Cadd9               Em                 D
e|--3-3-3-3-3-3-3-3-|--3-3-3-3-3-3-3-3--|--0-0-0-0-0-0-0-0-|--2-2-2-2-2-2-2-2-|
B|--3-3-3-3-3-3-3-3-|--3-3-3-3-3-3-3-3--|--0-0-0-0-0-0-0-0-|--3-3-3-3-3-3-3-3-|
G|--0-0-0-0-0-0-0-0-|--0-0-0-0-0-0-0-0--|--0-0-0-0-0-0-0-0-|--2-2-2-2-2-2-2-2-|
D|--0-0-0-0-0-0-0-0-|--2-2-2-2-2-2-2-2--|--2-2-2-2-2-2-2-2-|--0-0-0-0-0-0-0-0-|
A|--2-2-2-2-2-2-2-2-|--3-3-3-3-3-3-3-3--|--2-2-2-2-2-2-2-2-|------------------|
E|--3-3-3-3-3-3-3-3-|-------------------|--0-0-0-0-0-0-0-0-|------------------|
Funny how the time goes rushing by...

[Outro]
Gadd9                Cadd9           Em                 Dsus2
e|----------3-------|-------3-------|--------0--------|--0~-------------------|
B|----------3-------|-------3-------|--------0--------|--3~-------------------|
G|--------0----0----|-----0----0----|------0----0-----|--2~-------------------|   x4 
D|------0-----------|----2----------|----2------------|--0~-------------------|
A|----------------3-|--3----------3-|--------------2--|-----------------------|
E|---3--------------|---------------|--0--------------|-----------------------|
When will I see you again...            
Submit corrections

↑ Back to top | Tablatures and chords for acoustic guitar and electric guitar, ukulele, drums are parodies/interpretations of the original songs. You may use it for private study, scholarship, research or language learning purposes only