Home » M » Mika »

Mika - Last Party Tabs

Artists:  A B C D E F G H I J K L M N O P Q R S T U V W X Y Z # 

Last Party Tabs

(ver. 1) Click to play this song!
Mika
[Intro]
e|-----------------|-----------------|-----------------|---------------------|
B|-----------------|-----------------|-----------------|---------------------|
G|-----------------|-----------------|-1-------1-------|-1-------1-----------|
D|-4---1---4---1---|-4---1---4---1---|-----1-------1---|-----1-------1-------|
A|---2---2---2---2-|---2---2---2---2-|---2---2---2---2-|---2---2---2---2-----|
E|-----------------|-----------------|-----------------|---------------------|

e|-----------------|-----------------|-----------------|---------------------|
B|-----------------|-----------------|-----------------|-0-2-4---------------|
G|-1-------1-------|-2-------2-------|-4-------4-------|---------------------|
D|-----2-------2---|-----2-------2---|-----2-------2---|---------------------|
A|---2---2---2---2-|---0---0---0---0-|---2---2---2---2-|---------------------|
E|-----------------|-----------------|-----------------|---------------------|

[Verse]
e|-----------------|-----------------|-----------------|---------------------|
B|-----------------|-----------------|-----------------|---------------------|
G|-----------------|-1-------1-------|-1-------1-------|-2-------2-----------|
D|-4---1---4---1---|-----1-------1---|-----2-------2---|-----2-------2-------|
A|---2---2---2---2-|---2---2---2---2-|---2---2---2---2-|---0---0---0---0-----|
E|-----------------|-----------------|-----------------|---------------------|
There's a party going on in here...

e|-----------------|-----------------|-----------------|---------------------|
B|-----------------|-----------------|-----------------|---------------------|
G|-----------------|-1-------1-------|-1-------1-------|-2-------2-----------|
D|-4---1---4---1---|-----1-------1---|-----2-------2---|-----2-------2-------|
A|---2---2---2---2-|---2---2---2---2-|---2---2---2---2-|---0---0---0---0-----|
E|-----------------|-----------------|-----------------|---------------------|
DJ's playing the familiar tune...

e|-7-9-11--9---9---7---7---|-------------------------------------------------|
B|---------9---10--7---9---|-------------------------------------------------|
G|---------9---11--8---9---|-------------------------------------------------|
D|---------11--11--9---9---|-------------------------------------------------|
A|---------11--9---9---7---|-------------------------------------------------|
E|---------9---9---7---7---|-------------------------------------------------|

e|---------------------------------------------------------------------------|
B|---------------------------------------------------------------------------|
G|-4--------------------------1------------------2---------------------------|
D|-6--------------------------2------------------2---------------------------|
A|-6--------------------------2------------------1---------------------------|
E|-4--------------------------0----------------------------------------------|
    If you could look into the future, would you?

e|---------------------------------------------------------------------------|
B|---------------------------------------------------------------------------|
G|--------------------------------2------------------------------------------|
D|--------------------------------2------------------------------------------|
A|--------------------------------2------------------------------------------|
E|--------------------------------1------------------------------------------|
    If you could see it, would you even want to?

e|---------------------------------------------------------------------------|
B|---------------------------------------------------------------------------|
G|-6-8-9-8-6-4----------------1------------------2---------------------------|
D|----------------------------2------------------2---------------------------|
A|----------------------------2------------------1---------------------------|
E|----------------------------0----------------------------------------------|
    Got a feeling that there's bad news coming

e|---------------------------------------------------------------------------|
B|---------------------------------------------------------------------------|
G|---------------------------------2-----------------------------------------|
D|---------------------------------2-----------------------------------------|
A|---------------------------------2-----------------------------------------|
E|---------------------------------1-----------------------------------------|
    But I don't want to find it out

[Chorus]
e|----------------|----------------|----------------|------------------------|
B|----------------|----------------|----------------|------------------------|
G|----------------|--4---4---------|----------------|--4---4-----------------|
D|--6---6---2---2-|--4---4---4---4-|--6---6---2---2-|--4---4---4---4---------|
A|--6---6---2---2-|--2---2---4---4-|--6---6---2---2-|--2---2---4---4---------|
E|--4---4---0---0-|----------2---2-|--4---4---0---0-|----------2---2---------|
If it's the end of the world let's party...

e|---------------------------------------------------------------------------|
B|---------------------------------------------------------------------------|
G|---------------------------------------------------------------------------|
D|-2~------------------------------------------------------------------------|
A|-2~------------------------------------------------------------------------|
E|-0~------------------------------------------------------------------------|
Let's party, let's party.

[Verse]
e|-----------------|-----------------|-----------------|---------------------|
B|-----------------|-----------------|-----------------|---------------------|
G|-----------------|-1-------1-------|-1-------1-------|-2-------2-----------|
D|-4---1---4---1---|-----1-------1---|-----2-------2---|-----2-------2-------|
A|---2---2---2---2-|---2---2---2---2-|---2---2---2---2-|---0---0---0---0-----|
E|-----------------|-----------------|-----------------|---------------------|
Who can I blame with everything I've done...

e|-----------------|-----------------|-----------------|---------------------|
B|-----------------|-----------------|-----------------|---------------------|
G|-----------------|-1-------1-------|-1-------1-------|-2-------2-----------|
D|-4---1---4---1---|-----1-------1---|-----2-------2---|-----2-------2-------|
A|---2---2---2---2-|---2---2---2---2-|---2---2---2---2-|---0---0---0---0-----|
E|-----------------|-----------------|-----------------|---------------------|
So raise your glasses all my kings and queens...

e|-7-9-11--9---9---7---7---|-------------------------------------------------|
B|---------9---10--7---9---|-------------------------------------------------|
G|---------9---11--8---9---|-------------------------------------------------|
D|---------11--11--9---9---|-------------------------------------------------|
A|---------11--9---9---7---|-------------------------------------------------|
E|---------9---9---7---7---|-------------------------------------------------|

e|---------------------------------------------------------------------------|
B|---------------------------------------------------------------------------|
G|-4--------------------------1------------------2---------------------------|
D|-6--------------------------2------------------2---------------------------|
A|-6--------------------------2------------------1---------------------------|
E|-4--------------------------0----------------------------------------------|
    If you could look into the future, would you?

e|---------------------------------------------------------------------------|
B|---------------------------------------------------------------------------|
G|--------------------------------2------------------------------------------|
D|--------------------------------2------------------------------------------|
A|--------------------------------2------------------------------------------|
E|--------------------------------1------------------------------------------|
    If you could see it, would you even want to?

e|---------------------------------------------------------------------------|
B|---------------------------------------------------------------------------|
G|-6-8-9-8-6-4----------------1------------------2---------------------------|
D|----------------------------2------------------2---------------------------|
A|----------------------------2------------------1---------------------------|
E|----------------------------0----------------------------------------------|
    Got a feeling that there's bad news coming

e|---------------------------------------------------------------------------|
B|---------------------------------------------------------------------------|
G|---------------------------------2-----------------------------------------|
D|---------------------------------2-----------------------------------------|
A|---------------------------------2-----------------------------------------|
E|---------------------------------1-----------------------------------------|
    But I don't want to find it out

[Chorus]
e|----------------|----------------|----------------|------------------------|
B|----------------|----------------|----------------|------------------------|
G|----------------|--4---4---------|----------------|--4---4-----------------|
D|--6---6---2---2-|--4---4---4---4-|--6---6---2---2-|--4---4---4---4---------|
A|--6---6---2---2-|--2---2---4---4-|--6---6---2---2-|--2---2---4---4---------|
E|--4---4---0---0-|----------2---2-|--4---4---0---0-|----------2---2---------|
If it's the end of the world let's party...

e|----------------|----------------|----------------|------------------------|
B|----------------|----------------|----------------|------------------------|
G|----------------|--4---4---------|----------------|--4---4-----------------|
D|--6---6---2---2-|--4---4---4---4-|--6---6---2---2-|--4---4---4---4---------|
A|--6---6---2---2-|--2---2---4---4-|--6---6---2---2-|--2---2---4---4---------|
E|--4---4---0---0-|----------2---2-|--4---4---0---0-|----------2---2---------|
Let's party, let's party...

[Outro]
e|--------|-------------------------------------------------------------------|
B|--------|-------------------------------------------------------------------|
G|-4---1--|---2---2-----------------------------------------------------------|
D|-6---2--|---2---2-----------------------------------------------------------|
A|-6---2--|---1---2-----------------------------------------------------------|
E|-4---0--|-------1-----------------------------------------------------------|
There's a party going on in here...            
Submit corrections

↑ Back to top | Tablatures and chords for acoustic guitar and electric guitar, ukulele, drums are parodies/interpretations of the original songs. You may use it for private study, scholarship, research or language learning purposes only