Home » M » Midnight Oil »

Midnight Oil - Poets And Slaves Tabs

Artists:  A B C D E F G H I J K L M N O P Q R S T U V W X Y Z # 

Poets And Slaves Tabs

(ver. 1) Click to play this song!
Midnight Oil
 Rating:
4.3/5 (20 votes)
                [Chorus] (Clean guitar comes in)
 
e|-9-----10-9-----9----------------------------------------------------------|
B|---10--------12------------------------------------------------------------|
G|---------------------------------------------------------------------------| x7
D|---------------------------------------------------------------------------|
A|---------------------------------------------------------------------------|
E|---------------------------------------------------------------------------|
 
 
[Guitar Solo] (Overdrive and slide)
 
e|---------------------------------------------------------------------------|
B|-2/5/7~(7)/9/10\------------------------------7-(7)------------------------|
G|----------------7~~\6/7~~~~---11~~~/(13)/(14)-7-------(7)/-----------------|
D|----------------7~~\6/7~~~~-11~~~~~/(13)/(14)-7----(7)---/-----------------|
A|---------------------------------------------------------------------------|
E|---------------------------------------------------------------------------|
 
 
[Verse]
           Clean w/o slide
e|---------------------------------------------------------------------------|
B|---------------------------------------------------------------------------|
G|-/(11)------------------9p7\5/7-/9p7\5/7-----------------------------------|
D|-/(11)------------------9p7\5/7-/9p7\5/7-----------------------------------|
A|---------------------------------------------------------------------------|
E|-------------(8)\-(8)\-----------------------------------------------------|
 
e|---------------------------------------------------------------------------|
B|---------------------------------------------------------------------------|
G|-9-------14--------7-------9-------14-------7------------------------------|
D|-9-------14--------7-------9-------14-------7------------------------------|
A|-7-------12--------5-------7-------12-------5------------------------------|
E|---------------------------------------------------------------------------|
   w/ slide...
e|---------------------------------------------------------------------------|
B|-7--7--7-------7/9/10------------------------------------------------------|
G|-----------/---------------------------------------------------------------|
D|-----------/------------0/12-----------------------------------------------|
A|---------------------------------------------------------------------------|
E|---------------------------------------------------------------------------|
 
 
[Chorus] (Clean guitar comes in)
 
e|-9-----10-9-----9----------------------------------------------------------|
B|---10--------12------------------------------------------------------------|
G|---------------------------------------------------------------------------| x7
D|---------------------------------------------------------------------------|
A|---------------------------------------------------------------------------|
E|---------------------------------------------------------------------------|
            
Submit corrections

↑ Back to top | Tablatures and chords for acoustic guitar and electric guitar, ukulele, drums are parodies/interpretations of the original songs. You may use it for private study, scholarship, research or language learning purposes only