Home » M » Microphones »

Microphones - Solar System Tabs

Artists:  A B C D E F G H I J K L M N O P Q R S T U V W X Y Z # 

Solar System Tabs

(ver. 1) Click to play this song!
Microphones
                e-------2-2------2-2-----2-2-------2-2--|
B-------3-3------3-3-----3-3-------3-3--|
G-------0-0------0-0-----0-0-------0-0--|
D---------------------------------------|
A--2-----------2------2-----------2-----|
E---------------------------------------|

e-------2-2------2-2-----2-2-------2-2--|
B-------3-3------3-3-----3-3-------3-3--|
G-------0-0------0-0-----0-0-------0-0--|
D----------------------2---------2------|
A--0-----------0------------------------|
E---------------------------------------|

"let the flashflood begin!":
e------------------------2-2------2-----|
B------------------------3-3------3-----|
G---------2-2--0------------------------|
D------------------4-2---------2-----0--|
A---------------------------------------|
E---------------------------------------|

e-------2-2------2-2--------------------|
B-------3-3------3-3--------------------|
G-------0-0------0-0--------------------|
D---------------------------------------|
A--2-----------2------------------------|
E---------------------------------------|

Just listen to the song to get the strumming pattern down

- Blake
______________________________________________________________

Alternatively, it can be played as:

e-----2-2------2-2----2-2---------------|
B-----3-3------3-3----3-3---------------|
G-----2-2------2-2----2-2---------------|
D-----0-0------0-0----2-2---------------|
A--2---------0-------0------------------|
E---------------------------------------|

"Let the flash flood begin..."

e----------------0-0---------0-0--------|
B----------------3-3---------3-3--------|
G--2-0----------------------------------|
D-------4-(2)----------(3)--------------|
A---------------------------------------|
E---------(2)----------(1)--------------|            
Submit corrections

↑ Back to top | Tablatures and chords for acoustic guitar and electric guitar, ukulele, drums are parodies/interpretations of the original songs. You may use it for private study, scholarship, research or language learning purposes only