Home » M » Microphones »

Microphones - I Want To Be Cold Tabs

Artists:  A B C D E F G H I J K L M N O P Q R S T U V W X Y Z # 

I Want To Be Cold Tabs

(ver. 1) Click to play this song!
Microphones
[Intro]
 
E|-----------------------------------------|       Lyrics:
B|-----------------------------------------|
G|-----------------------------------------|       It's raining on me, I don't want it to stop
D|-11-11-11-11-11-11-11-11-11-11-11-11-----|       I don't want to breathe, anymore
A|-11-11-11-11-11-11-11-11-11-11-11-11-----|       Oooh
D|-11-11-11-11-11-11-11-11-11-11-11-11-----|
                                                   I want soggy ground, I want to feel my feet in the sand
                                                   I want water to rise and to cover all the land
E|-----------------------------------------|       I want to swim until my arms give out and I come to an end
B|-----------------------------------------|       I hope it happens soon, I can't deal with feeling this bad
G|-----------------------------------------|       Oooh
D|-/4---4-4-4-4-4-4-/2---2-2-2-2-2-2-------|
A|-/4---4-4-4-4-4-4-/2---2-2-2-2-2-2-------|       I want to be cold
D|-/4---4-4-4-4-4-4-/2---2-2-2-2-2-2-------|       And I want it to snow so bad
                 It's  raining on  me-
                                                   I hope your flames don't grow
E|-----------------------------------------|       I want to be buried in snow
B|-----------------------------------------|       I hope your flames don't grow
G|-----------------------------------------|       I just want to be cold
D|-0---0-0-0-0-0-0-0---11-11-/9-9-/7-------|       I don't want you to know
A|-0---0-0-0-0-0-0-0---11-11-/9-9-/7-------|       (You drew a heart with an arrow and it shot right past)
D|-0---0-0-0-0-0-0-0---11-11-/9-9-/7-------|
   -e-e                Don't want it to 
 
E|-----------------------------------------|
B|-----------------------------------------|
G|-----------------------------------------|
D|-/4---4-4-4-4-4-4-/2---2-2-2-2-2-2-------|
A|-/4---4-4-4-4-4-4-/2---2-2-2-2-2-2-------|
D|-/4---4-4-4-4-4-4-/2---2-2-2-2-2-2-------|
   stop           I don't  want  to
 
E|-----------------------------------------|
B|-----------------------------------------|
G|-----------------------------------------|
D|-0---0-0-0-0-0-0-0---0-0-0-0-0-0---------|
A|-0---0-0-0-0-0-0-0---0-0-0-0-0-0---------|
D|-0---0-0-0-0-0-0-0---0-0-0-0-0-0---------|
   breathe        A-a-a-a-anym-o
 
E|-----------------------------------------|
B|-----------------------------------------|
G|-----------------------------------------| [х5]
D|-11---11-11-11-11-11-11------------------|
A|-11---11-11-11-11-11-11------------------|
D|-11---11-11-11-11-11-11------------------|
   o-re  *O-O-O-O-O-O-O-
 
E|-----------------------------------------|
B|-----------------------------------------|
G|-----------------------------------------|
D|-/9---9-9-9-9-9-9-/7---7-7-7-7-7-7-7-----|
A|-/9---9-9-9-9-9-9-/7---7-7-7-7-7-7-7-----|
D|-/9---9-9-9-9-9-9-/7---7-7-7-7-7-7-7-----|
   -O-O-O-O-O-O-O-O-o-o-o-o-o-o-o-oh*
E|-----------------------------------------|
B|-----------------------------------------|
G|-----------------------------------------|
D|-/7---/9---/11---------------------------|
A|-/7---/9---/11---------------------------|
D|-/7---/9---/11---------------------------|
 
[Verse 1]
 
E|-----------------------------------------|
B|-----------------------------------------|
G|-----------------------------------------|
D|-4---4-4-4-4-4-4-/2---2-2-2-2-2-2--------|
A|-4---4-4-4-4-4-4-/2---2-2-2-2-2-2--------|
D|-4---4-4-4-4-4-4-/2---2-2-2-2-2-2--------|
  |I want       |I want to feel
  |soggy ground |my feet in 
 
E|-----------------------------------------|
B|-----------------------------------------|
G|-----------------------------------------|
D|-0---0-0-0-0-0-0-0---0-0-0-0-0-0---------|
A|-0---0-0-0-0-0-0-0---0-0-0-0-0-0---------|
D|-0---0-0-0-0-0-0-0---0-0-0-0-0-0---------|
   sand                    I want  
 
E|-----------------------------------------|
B|-----------------------------------------|
G|-----------------------------------------|
D|-4---4-4-4-4-4-4-/2---2-2-2-2-2-2--------|
A|-4---4-4-4-4-4-4-/2---2-2-2-2-2-2--------|
D|-4---4-4-4-4-4-4-/2---2-2-2-2-2-2--------|
  |Water        |To cover a-all the
  |to rise and  |
 
E|-----------------------------------------|
B|-----------------------------------------|
G|-----------------------------------------|
D|-0---0-0-0-0-0-0-0---11-11--/9-9--/7-----|
A|-0---0-0-0-0-0-0-0---11-11--/9-9--/7-----|
D|-0---0-0-0-0-0-0-0---11-11--/9-9--/7-----|
   la-a-and
 
E|-----------------------------------------|
B|-----------------------------------------|
G|-----------------------------------------|
D|-4---4-4-4-4-4-4-/2---2-2-2-2-2-2--------|
A|-4---4-4-4-4-4-4-/2---2-2-2-2-2-2--------|
D|-4---4-4-4-4-4-4-/2---2-2-2-2-2-2--------|
  |I want to swim |Give out and I
  |till my arms   |come to an 
 
E|-----------------------------------------|
B|-----------------------------------------|
G|-----------------------------------------|
D|-0---0-0-0-0-0-0-0---11-11--/9-9--/7-----|
A|-0---0-0-0-0-0-0-0---11-11--/9-9--/7-----|
D|-0---0-0-0-0-0-0-0---11-11--/9-9--/7-----|
   end                  
 
E|-----------------------------------------|
B|-----------------------------------------|
G|-----------------------------------------|
D|-4---4-4-4-4-4-4-/2---2-2-2-2-2-2--------|
A|-4---4-4-4-4-4-4-/2---2-2-2-2-2-2--------|
D|-4---4-4-4-4-4-4-/2---2-2-2-2-2-2--------|
  |I hope it     |I can't deal with
  |happens soon  |feeling this
 
E|-----------------------------------------|
B|-----------------------------------------|
G|-----------------------------------------|
D|-0---0-0-0-0-0-0-0---11-11--/9-9--/7-----|
A|-0---0-0-0-0-0-0-0---11-11--/9-9--/7-----|
D|-0---0-0-0-0-0-0-0---11-11--/9-9--/7-----|
   bad                 *O-O-O-O-O-O-O-
 
E|-----------------------------------------|
B|-----------------------------------------|
G|-----------------------------------------|
D|-4---4-4-4-4-4-4-/6---6-6-6-6-6-6-6------|
A|-4---4-4-4-4-4-4-/6---6-6-6-6-6-6-6------|
D|-4---4-4-4-4-4-4-/6---6-6-6-6-6-6-6------|
   -O-O-O-O-O-O-O-O-O-O-O-O-O-O-O-O-O-
 
E|-----------------------------------------|
B|-----------------------------------------|
G|-----------------------------------------|
D|-7---7-7-7-7-7-7-7---11-9-11-------------|
A|-7---7-7-7-7-7-7-7---11-9-11-------------|
D|-7---7-7-7-7-7-7-7---11-9-11-------------|
  -O-O-O-O-O-O-O-oh*
 
[Chorus]
 
E|-----------------------------------------|
B|-----------------------------------------|
G|-----------------------------------------|
D|-4---4-4-4-4-4-4-/2---2-2-2-2-2-2--------|
A|-4---4-4-4-4-4-4-/2---2-2-2-2-2-2--------|
D|-4---4-4-4-4-4-4-/2---2-2-2-2-2-2--------|
      I-I  wa-ant   to-o be-e-e  
 
E|-----------------------------------------|
B|-----------------------------------------|
G|-----------------------------------------|
D|-0---0-0-0-0-0-0-0---11-9-7--------------|
A|-0---0-0-0-0-0-0-0---11-9-7--------------|
D|-0---0-0-0-0-0-0-0---11-9-7--------------|
   c-o-o-old.
 
E|-----------------------------------------|
B|-----------------------------------------|
G|-----------------------------------------|
D|-4---4-4-4-4-4-4-/2---2-2-2-2-2-2--------|
A|-4---4-4-4-4-4-4-/2---2-2-2-2-2-2--------|
D|-4---4-4-4-4-4-4-/2---2-2-2-2-2-2--------|
   A-and I-I wa-ant i-it to-o     sno-
 
E|-----------------------------------------|
B|-----------------------------------------|
G|-----------------------------------------|
D|-0---------------------------------------|
A|-0---------------------------------------|
D|-0---------------------------------------|
   -w so ba-ad.
 
[Outro]
 
E|-----------------------------------------|
B|-----------------------------------------|
G|-----------------------------------------|
D|-0---0-0-0-0-0-0--/4---4-4-4-4-4-4-------|
A|-0---0-0-0-0-0-0--/4---4-4-4-4-4-4-------|
D|-0---0-0-0-0-0-0--/4---4-4-4-4-4-4-------|
  |I hope your   | Gro-ow
  |flames don't  |
 
E|-----------------------------------------|
B|-----------------------------------------|
G|-----------------------------------------|
D|-/2---2-2-2-2-2-2--0---0-0-0-0-0-0-------|
A|-/2---2-2-2-2-2-2--0---0-0-0-0-0-0-------|
D|-/2---2-2-2-2-2-2--0---0-0-0-0-0-0-------|
  |I want to be   |  sno-ow
  |buried in      |  
 
E|-----------------------------------------|
B|-----------------------------------------|
G|-----------------------------------------|
D|-0---0-0-0-0-0-0--/4---4-4-4-4-4-4-------|
A|-0---0-0-0-0-0-0--/4---4-4-4-4-4-4-------|
D|-0---0-0-0-0-0-0--/4---4-4-4-4-4-4-------|
  |I hope your   | Gro-ow
  |flames don't  |
 
E|-----------------------------------------|
B|-----------------------------------------|
G|-----------------------------------------|
D|-/2---2-2-2-2-2-2--0---0-0-0-0-0-0-------|
A|-/2---2-2-2-2-2-2--0---0-0-0-0-0-0-------|
D|-/2---2-2-2-2-2-2--0---0-0-0-0-0-0-------|
  |I just want    |  co-old
  |to be          |  
 
E|-----------------------------------------|
B|-----------------------------------------|
G|-----------------------------------------|
D|-0---0-0-0-0-0-0--4----------------------|
A|-0---0-0-0-0-0-0--4----------------------|
D|-0---0-0-0-0-0-0--4----------------------|
   I do-on't want
       you to kno-ow      
 
(You drew a heart with an arrow and it shot right past)
            
Submit corrections

↑ Back to top | Tablatures and chords for acoustic guitar and electric guitar, ukulele, drums are parodies/interpretations of the original songs. You may use it for private study, scholarship, research or language learning purposes only